Subhumans - Parasites Chords & Tabs

 

Parasites Chords & Tabs

Subhumans Chords & Tabs

Version: 1 Type: Bass Tab 0 ratings
1 star 2 stars 3 stars 4 stars 5 stars
comments

Parasites Bass Tab

                                 Subhumans - Parasites


Alright, so this is how I heard it. Their bassist does a lotta work for punk bass. Here it is.

Intro
G|------|------|-------|-----------------|
D|------|------|-------|-----------------|
A|-5----|-5-5--|-5-5-5-|-5-5-5-5-5-5-5-5-|
E|------|------|-------|-----------------|

Verse 
G|-------------------------------|
D|--4-5-4------------------------|
A|-5-----3-3-3-3-2-2-2-2-3-3-3-3-|
E|-------------------------------|


Chorus
G|----------------|
D|----------------|
A|-7-7-6-6-6-6-6--| x4
E|-0--------------|

Then...
G|----------------|
D|-----7----7//---|
A|-7-6------------| x1
E|----------------|
[ Tab from: http://www.guitartabs.cc/tabs/s/subhumans/parasites_btab.html ]
Into next verse
G|--7-7-7-7-7-7-7-7-7-7-7-7-7-7-7-7-|
D|-0-0-0-0-0-0-0-0-0-0-0-0-0-0-0-0--|
A|----------------------------------|
E|----------------------------------|

Same riff for guitar solo, you could do the octave if you want.

Then after solo w/guitar...
G|----------------------------|
D|-4-5-4--3-4-3--2-3-2--3-4-3-|
A|----------------------------| x4
E|----------------------------|


G|----------------------------|
D|-5----------------5/////----|
A|----------------------------|
E|----------------------------|

Gonna blow you into little pieces....... pieces.....

Outro
G|-------------------------------|
D|--4-5-4------------------------| x4
A|-5-----3-3-3-3-2-2-2-2-3-3-3-3-|
E|-------------------------------|
Comments