Subhumans - No Chords & Tabs

 

No Chords & Tabs

Subhumans Chords & Tabs

Version: 1 Type: Bass Tab 0 ratings
1 star 2 stars 3 stars 4 stars 5 stars
comments

No Bass Tab

Song: No
Artist: Subhumans   
Album: The Day The Country Died
Tabbed by: Tamra (nachogirl@home.com)
http://basstabarchive.com/
 
 
This punk classic is in standard tuning. You're going to want to use a pick.
 
 
 
INTRO                                                                      (12x)
 
G|---------------------------------------------------------------------|
D|-2------------------------------------------------------------------|
A|---2--0-----------0--2---------------------------------------------|
E|---------3--0--3---------------------------------------------------|
 
 
VERSE                                                                (3x) 
 
G|-----------------------------------------------------------------|
D|-----------------------------------------------------------------|
A|-7-7---9-9---10-10---9-9-9---7-7---5-5---4-4---5-5-5---|
E|-----------------------------------------------------------------|
 
 
 
Repeat the intro one more time, the the verse for the rest of the song.


[ Tab from: http://www.guitartabs.cc/tabs/s/subhumans/no_btab.html ]
Comments