Subhumans - New Age Chords & Tabs

 

New Age Chords & Tabs

Subhumans Chords & Tabs

Version: 1 Type: Bass Tab

New Age Bass Tab

NEW AGE by Subhumans. Album : Day The Country Died (JU 1979)
So you're living in a fast world.
:
# verse # X8
G-------------------------------------|
D----------4--4--2---2-2-2-2-2-2-2----|
A----2--2-----------------------------|
E-------------------------------------|
:
# chorus #  *=playX8 #=playX4 		      (!no brackets!)
G-------|-------X2-------|----------------------|------(---)|
D---#---|--*-------------|---*--------*-----*---|------(---)|
A---2---|--2---0-0--2-2--|---2-----0--0-----0---|--2-2-(-2-)|
E-------|----------------|------3--------3------|------(---)|
:
Then play verse
:
# verse-fill1 #
G----------------------2-4-2----------|
D----------4--4--2---2-------4-2-4----|
A----2--2-----------------------------|
E-------------------------------------|
:
Then play verseX4, chorus(!no brackets!), verseX2, verse-fill1,
 verseX2
:
# verse-fill2 #
G--------------------------4-4-2-4----|
D----------4--4--2---2-2-2------------|
A----2--2-----------------------------|
E-------------------------------------|
:
Then play verseX6, chorus(!with brackets!)
:
See the people you've already killed.
jackhynes@gmail.com 01.04.04
http://www.geocities.com/jackstabs
[ Tab from: http://www.guitartabs.cc/tabs/s/subhumans/new_age_btab.html ]