Subhumans - Minority Chords & Tabs

 

Minority Chords & Tabs

Subhumans Chords & Tabs

Version: 1 Type: Bass Tab

Minority Bass Tab

MINORITY by Subhumans. Album : Day The Country Died (DICK 1980)
Yeah we're the minority, the ones with brains.
:
# verse # X12
G----------------------|
D----------------------|
A------3---------------|
E---5-----5--3--0--3---|
:
# chorus # X4  *=playX8
G-----------------------|
D-------6--------7------|
A-----------------------|
E-----------------------|
:
Then play verseX12, chorusX4, verseX4
:
# bridge # X4
G----------------------|
D------3---------------|
A---5-----5--3--0--3---|
E----------------------|
:
Then play verseX7(!end on first note!)
:
Putting the country on a nervous strain.
jackhynes@gmail.com 01.04.04 revised 05.06.04
http://www.geocities.com/jackstabs
[ Tab from: http://www.guitartabs.cc/tabs/s/subhumans/minority_btab.html ]