Subhumans - Apethy Chords & Tabs

 

Apethy Chords & Tabs

Subhumans Chords & Tabs

Version: 1 Type: Tab 0 ratings
1 star 2 stars 3 stars 4 stars 5 stars
comments

Apethy Tab

        "Apethy"  the Subhumans



verse
-----------------------------------------------------------------------------------------------------------
-----------------------------------------------------------------------------------------------------------
---------------------------------------------------------------------------------------------------------------
---2-2-2---5-5-5--9-8-7--9-7--------------------------------------------------------------------------
---2-2-2---5-5-5--9-8-7--9-7--------------------------------------------------------------------------
---0-0-0---3-3-3--7-6-5--7-5-------------------------------------------------------------------------

well, actually ths should probably be the bridge, and the chorus should be the verse since they don’t actually sing in this part. Oh well, you can figure it out.

chorus
[ Tab from: http://www.guitartabs.cc/tabs/s/subhumans/apethy_tab.html ]
---x----x---x---------------------------------------------------------------------------------------------
---x----x---x---------------------------------------------------------------------------------------------
---x-5-x-5-x-5----5----6----6---6----6----8-----8-----8-----8-----10----10---10---10-----------
---x-5-x-5-x-5----5----6----6---6-----6-----8-----8-----8-----8-----10----10---10---10-----------
---x-7-x-7-x-7-x-7--x-8-x-8-x-8-x-8--x-10-x-10-x-10-x-10--x-12-x-12-x-12-x12-------------
---x---x----x---------------------------------------------------------------------------------------------

I got lazy about the x’s, so where ever you see only one, it’s supposed all the way.
The x’s mean to strum the strings but not hold down the frets, so you get thatkind of blunt sound.

Bridge

----------------------------------------------------------------------------------------------------------
-----------------------------------------------------------------------------------------------------------
---10-10-------11-11-11-11--------------------------------------------------------------------------------------------------
---10-10--8-8--11-11-11-11------------------------------------------------------------------------------------------------
---7--7---8-8---8--8--8--8--------------------------------------------------------------------------------------------------
-----------6-6-------------------------------------------------------------------------------------------------


and there you have it, its not the official version, but it'll do.ENJOY
Comments