Subbreed - Hangman Chords & Tabs

 

Hangman Chords & Tabs

Subbreed Chords & Tabs

Version: 2 Type: Tab 0 ratings
1 star 2 stars 3 stars 4 stars 5 stars
comments

Hangman Tab

Hangman

Intro

--------------------------------------------------------------------------------------------------|
--------------------------------------------------------------------------------------------------|
--------------------------------------------------------------------------------------------------|
-------------12---------------11-------------12------------11-------------12------------11--------|
---------12----------------11-------------12------------11--------------12------------11----------|
------12----------------11-------------12------------11--------------12-------------11------------|
        											      *2

---------------------------------------------------------------------------------------------------|
---------------------------------------------------------------------------------------------------|
---------------------------------------------------------------------------------------------------|
------12----------12-------------------------------------------------------------------------------|
------12----------12-------------------------------------------------------------------------------|
------12----------12-------------------------------------------------------------------------------|

Interlude

-----11h12p11---11h12p11---11h12p11---11h12p11---11--------------------------------------------------------------------------|
---------------------------------------------------------------------------------12---12-------------------------------------|
--------------------------------------------------------------------------------------------------------------------    * 4--|
-----------------------------------------------------------------------------------------------------------------------------|
-----------------------------------------------------------------------------------------------------------------------------|
-----------------------------------------------------------------------------------------------------------------------------|


Verse
[ Tab from: http://www.guitartabs.cc/tabs/s/subbreed/hangman_tab_ver_2.html ]
-----1-----1-----0-----0-----0-----0-----0----------1-----1-----0-----0-----0-----0-----0-----------------|
-----3-----3-----2-----2-----2-----1-----1----------3-----3-----2-----2-----2-----1-----1-----------------|
-----3-----3-----2-----2-----2-----1-----1----------3-----3-----2-----2-----2-----1-----1-----------------|
---------------------------------------------------------------------------------------------------    *2-|
----------------------------------------------------------------------------------------------------------|
----------------------------------------------------------------------------------------------------------|


-----1-----0-----------1-----1-----1-----0--------------|
-----3-----2-----------3-----3-----3-----2-----      *2-|
-----3-----2-----------3-----3-----3-----2--------------|
--------------------------------------------------------|
--------------------------------------------------------|
--------------------------------------------------------|


-----1-----1-----0-----0-----0-----0-----------                        -----0-----1-----1----------|
-----3-----3-----2-----2-----2-----2-----------                        -----2-----3-----3----------|
-----3-----3-----2-----2-----2-----2-----------  * 8                 -----2-----3-----3-----   * 4-|
--------------------------------------------------               ----------------------------------|
--------------------------------------------------                        -------------------------|
--------------------------------------------------                        -------------------------|


Guitar solo

----------------------------------------                            -----------------------------------------|
----------------------------------------                            -----------------------------------------|
----------------------------------------   * 4                    ----------------------------------   * 16--|
----------------------------------------                            -----------------------------------------|
--------------11--12------------------                            -------------11h12-------------------------|
-----13--11---------------------------                            -----13p11---------------------------------|


Outro

---------------------5---5---6---6-----------|
-----7---7---5---5---7---7---8---8-----------|
-----9---9---7---7---7---7---8---8-----  * 8-|
-----9---9---7---7---------------------------|
---------------------------------------------|
---------------------------------------------|
Comments