Sub7even - Weatherman Chords & Tabs

 

Weatherman Chords & Tabs

Sub7even Chords & Tabs

Version: 1 Type: Tab 0 ratings
1 star 2 stars 3 stars 4 stars 5 stars
comments

Weatherman Tab




weatherman melodies tab




|Song: Weatherman
Artist: Sub7even

Intro/Verse:
Played with chorus;
e|-----0h1----------------------------------------------------------|
B|--------3------3-----------3-----------3--------------------------|
G|----2------------0-----------3------------------------------------|
D|--0----------0-----------3----------------------------------------|
A|-----------3----------1------------0------------------------------|
E|------------------------------------------------------------------|
[ Tab from: http://www.guitartabs.cc/tabs/s/sub7even/weatherman_tab.html ]
e|-----------0h1----------------------------------------------------|
B|--------------3-------3------------3-----------3-------3----------|
G|----------2-------------0------------0----------------------------|
D|----0h2-0-----------0-----------0---------------------------------|
A|-0h3--------------3--------------------------1-------3------------|
E|------------------------------3-----------------------------------|

Solo:
e|------------------------------------------| 
B|------------------------------------------|
G|------------------------------------------| 
D|------------------------------------------|
A|--17-15-------15--------------------------|
E|--------15-17----17-15-13-15-17-----------|

e|-----------------------------17-13-------------------|
B|------------------------15-17----17-15-17(let ring)--|
G|----------------------14-----------------------------|
D|--15-14-15------14-15--------------------------------|
A|-----------17--17------------------------------------|
E|-----------------------------------------------------|

Tabbed by h*

Comments