Styx - Queen Of Spades Chords & Tabs

 

Queen Of Spades Chords & Tabs

Styx Chords & Tabs

Version: 1 Type: Tab 0 ratings
1 star 2 stars 3 stars 4 stars 5 stars
comments

Queen Of Spades Tab

   
#----------------------------------PLEASE NOTE--------------------------------#
#This file is the author's own work and represents their interpretation of the#
#song. You may only use this file for private study, scholarship, or research.#
#-----------------------------------------------------------------------------#

Date: Mon, 11 May 1998 20:29:07 -0500
Subject: s/styx/queen_of_spades.tab
From: guitarace@juno.com (N Y B)

Queen of  Spades -- 
 --
Rev 2.02
Transcribed By Scott Duvall  (Guitarace@Juno.com)
With Help of Darren Pease of Brave Last Days  (Call the Hotline at 
(312) 409-9519)


Guitar I parts are listed first, Guitar II mirrors except where noted.
Power Chords are  Two-part with octave note, which may be omitted.
I Believe this song is from The Pieces of Eight album, but mine is on the
Greatest hits Part 2
I Don't have the solo, Feel free to send it to me, Olga, or whatever.
E-Mail me if you want to rip on my tab, send mistakes, etc.

Legend:
^ = Hammer-on, Pull off (noted above Tab)
x = Rhythm stroke
\ = Downward Slide
/ = Upward Slide

Repeat 12X
    *1*
||--0--------0--------0--------0--------0--------0--------||
||----0--------0--------0--------0--------0--------0------||
||*-----6--------6--------6--------2--------2--------2----||
||*-------6--------6--------6--------2--------2--------2--||
||--------------------------------------------------------||
||--------------------------------------------------------||

    Repeat 8X
   A  *2*            h h h   h h h h
|-----------||----------------------------------------||
|-----------||----------------------------------------||
|--2-2-2-2--||*--------------------------------------*||
|--2-2-2-2--||*--------------------------------------*||
|--0-0-0-0--||--4--2-4--2-4--0-2----------0^1^2^3^4---||
|-----------||------------2-------0^2^3^4-------------||

 
    *3* "Chug" 
   A  B  C# B  C# C# B  C#   A  B C# 
 
PM==========================
|--------------------------|---------------------------------------|
|--------------------------|---------------------------------------|
|--2--4--6--4--6--6--4--6--|--2--4---------------------------------|
|--2--4--6--4--6--6--4--6--|--2--4--6-x xxx xxx xxx xxx xxx xxx xxx|
|--0--2--4--2--4--4--2--4--|--0--2--4 x xxx xxx xxx xxx xxx xxx xxx|
|--------------------------|---------------------------------------|


   C# A  B    C# B A B A    C# E  C# A  B  E  D#   C# B  A B A
|-----------|------------|-----------------------|---------------|
|-----------|------------|-----5-----------5--4--|---------------|
|--6--2--4--|-6--4-2-4-2-|--6--4--6--2--4--4--3--|--6--4--2-4-2--|
|--6--2--4--|-6--4-2-2-2-|--6--2--6--2--4--2--1--|--6--4--2-4-2--|
|--4--0--2--|-4--2-0-2-2-|--4-----4--0--2--------|--4--2--0-2-0--|
|-----------|------------|-----------------------|---------------|


Repeat 4X  (Guitar II Solo)
[ Tab from: http://www.guitartabs.cc/tabs/s/styx/queen_of_spades_tab.html ]
           h h h   h h h h    A  B  C#B
C# C#B C#   
||----------------------------------------||----------------------
||----------------------------------------||----------------------
||*--------------------------------------*||--2--4--6-4-6--6-4-6--
||*--------------------------------------*||--2--4--6-4-6--6-4-6--
||--4--2-4--2-4--2-4----------0^1^2^3^4---||--0--2--4-2-4--4-2-4--
||------------2--0-2--0^2^3^4-------------||----------------------




  B  A  B  C# C# B  A  B  C# B  A  A     C# B  A  B  C# B  A  C# B  
--------------------------------------|---------------------------
--------------------------------------|---------------------------
--6--2--4--6--6--4--2--4--6--4--2--2--|--6--4--2--4--6--4--2--6--4
--6--2--4--6--6--4--2--4--6--4--2--2--|--6--4--2--4--6--4--2--6--4
--4--0--2--4--4--2--0--2--4--2--0--0--|--4--2--0--2--4--2--0--4--2
--------------------------------------|---------------------------


"Chug"
  C# A  B  C#    C#
  PM===========================
--------------|---------------------------------|
--------------|---------------------------------|
--6--2--4--6--|---------------------------------|
--6--2--4--6--|--6-x xxx xxx xxx xxx xxx xxx xxx|
--4--0--2--4--|--4 x xxx xxx xxx xxx xxx xxx xxx|
--------------|---------------------------------|

   C# A  B    C# B A B A    C# E  C# A  B  E  D#   C# B  A B A
|-----------|------------|-----------------------|---------------|
|-----------|------------|-----5-----------5--4--|---------------|
|--6--2--4--|-6--4-2-4-2-|--6--4--6--2--4--4--3--|--6--4--2-4-2--|
|--6--2--4--|-6--4-2-4-2-|--6--2--6--2--4--2--1--|--6--4--2-4-2--|
|--4--0--2--|-4--2-0-2-0-|--4-----4--0--2--------|--4--2--0-2-0--|
|-----------|------------|-----------------------|---------------|

   C# A  B    C# B A B A    C# E  C# A  B  E  D#   C# B  A B A
|-----------|------------|-----------------------|---------------|
|-----------|------------|-----5-----------5--4--|---------------|
|--6--2--4--|-6--4-2-4-2-|--6--4--6--2--4--4--3--|--6--4--2-4-2--|
|--6--2--4--|-6--4-2-4-2-|--6--2--6--2--4--2--1--|--6--4--2-4-2--|
|--4--0--2--|-4--2-0-2-0-|--4-----4--0--2--------|--4--2--0-2-0--|
|-----------|------------|-----------------------|---------------|

Repeat and Fade 
||--0--------0--------0---------||
||----0--------0--------0-------||
||*-----6--------6--------6----*||
||*-------6--------6--------6--*||
||------------------------------||
||------------------------------||


Guitar II Parts 

*1*  Fills between Chord changes

||----------------||
||---4\2----2/4---||
||*--4\2----2/4--*||
||*--4\2----2/4--*||
||---2\0----0/2---||
||----------------||

*2*  Fill under last A power Chord

      h h     
|-------------|
|-------------|
|-------------|
|-------------|
|--4-------2--|
|----0^2^3----|

*3*  Fill between C# power Chords (Guitar I may Double)

    h h h   h h h h
|---------------------|
|---------------------|
|---------------------|
|---------------------|
|----------0^1^2^3^4--|
|--0^2^3^4------------|

Comments