Styx - Mr Roboto Chords & Tabs

 

Mr Roboto Chords & Tabs

Styx Chords & Tabs

Version: 1 Type: Tab 1 rating
1 star 2 stars 3 stars 4 stars 5 stars
comments

Mr Roboto Tab

   
##################################################################################
# This file is the author's own work and represents their interpretation of the  #
# song. You may only use this file for private study, scholarship, or research.  #
##################################################################################

Song: Mr. Roboto
Band: Styx
Tabbed by: John Mercer
Email: spacenumber6@hotmail.com

This is the first tab that I know of on the internet.
The timimg is probably off, no wait they are off!
Especially on the voice parts at the end.
Just listein to the tune and you'll get it easy!
If you can play the keyboard parts, your a better man than I!!!



Intro:(shit load of keyboard stuff, just play this along with it)


e---------------------------------------------|
B---------------------------------------------|
G-3-----6--5----------------------------------|
D----6--------6--4--Play a shit load of times-|
A---------------------------------------------|
E---------------------------------------------|


  F                       F#

  Domo Arigato Mr. Roboto Mata  ahoo dima de

e--------------------------------------------|
B--------------------------------------------|
G--------------------------------------------|
D-3-----------------------4------------------|
A-3-----------------------4------------------|
E-1-----------------------2------------------|



  F                        F#

  Domom Arigato Mr. Roboto Himitsu wo Shiri tai

e-----------------------------------------------|
B-----------------------------------------------|
G-----------------------------------------------|
D-3------------------------4--------------------|
A-3------------------------4--------------------|
E-1------------------------2--------------------|



  Bb G# C# C  G# F#

  You're wondering who I am
                           (secret, secret i got a secret)
 Gtr 1
e---------------------------------------------------------|
B---------------------------------------------------------|
G---------------------------------------------------------|
D---------------------------------------------------------|
A-------4--3--------4--4--4--4--4--4--4--4----------------|
E-6--4--------4--2--2--2--2--2--2--2--2--2----------------|
                                                          |
                                                          |
 Gtr 2                                                    |
e---------------------------------------------------------|
B---------------------------------------------------------|
G-3-----6--5----------------------------------------------|
D----6--------6--4~~~~~~~~~~------------------------------|
A---------------------------------------------------------|
E---------------------------------------------------------|



  Bb G# C# C  G# F#

  Machine or mannequin
                   (secret, secret i got a secret)
 Gtr 1
e-------------------------------------------------|
B-------------------------------------------------|
G-------------------------------------------------|
D-------------------------------------------------|
A-------4--3--------4--4--4--4--4--4--4--4--------|
E-6--4--------4--2--2--2--2--2--2--2--2--2--------|
                                                  |
                                                  |
 Gtr 2                                            |
e-------------------------------------------------|
B-------------------------------------------------|
G-3-----6--5--------------------------------------|
D----6--------6--4~~~~~~~~~~----------------------|
A-------------------------------------------------|
E-------------------------------------------------|



  Bb G# C# C  G# F#

  With parts made in Japan
                     (secret, secret i got a secret)
 Gtr 1
e---------------------------------------------------|
B---------------------------------------------------|
G---------------------------------------------------|
D---------------------------------------------------|
A-------4--3--------4--4--4--4--4--4--4--4----------|
E-6--4--------4--2--2--2--2--2--2--2--2--2----------|
                                                    |
                                                    |
 Gtr 2                                              |
e---------------------------------------------------|
B---------------------------------------------------|
G-3-----6--5----------------------------------------|
D----6--------6--4~~~~~~~~~~------------------------|
A---------------------------------------------------|
E---------------------------------------------------|


  Bb G# C# C  C# Eb

  I am the modern man 
 Gtr 1
e-----------------------|
B-----------------------|
G-----------------------|
D----------------8--8---|
A-------4--3--4--6--6---|
E-6--4------------------|
                        |
                        |
  Gtr 2                 |
e-----------------------|
B-----------------------|
G-3-----6--5--6--8--8---|
D----6------------------|
A-----------------------|
E-----------------------|



  Eb

e------------------------|------------------------|
B------------------------|------------------------|
G------------------------|------------------------|
D-8--8--8--8--8--8--8--8-|-8--8--8--8--8--8--8--8-|
A-6--6--6--6--6--6--6--6-|-6--6--6--6--6--6--6--6-|
E------------------------|------------------------|



  Eb

  I've got a secret        I've been hiding

e------------------------|------------------------|
B------------------------|------------------------|
G------------------------|------------------------|
D-8--8--8--8--8--8--8--8-|-8--8--8--8--8--8--8--8-|
A-6--6--6--6--6--6--6--6-|-6--6--6--6--6--6--6--6-|
E------------------------|------------------------|



  C#                                         D

  Under my skin

e------------------------|------------------------|
B------------------------|------------------------|
G------------------------|------------------------|
D-6--6--6--6--6--6--6--6-|-6--6--6--6--6--6--7--7-|
A-4--4--4--4--4--4--4--4-|-4--4--4--4--4--4--5--5-|
E------------------------|------------------------|


  Eb

  My heart is human        My blood is boling

e------------------------|------------------------|
B------------------------|------------------------|
G------------------------|------------------------|
D-8--8--8--8--8--8--8--8-|-8--8--8--8--8--8--8--8-|
A-6--6--6--6--6--6--6--6-|-6--6--6--6--6--6--6--6-|
E------------------------|------------------------|



  C#                                         D

  My brain I.B.M.
  
e------------------------|------------------------|
B------------------------|------------------------|
G------------------------|------------------------|
D-6--6--6--6--6--6--6--6-|-6--6--6--6--6--6--7--7-|
A-4--4--4--4--4--4--4--4-|-4--4--4--4--4--4--5--5-|
E------------------------|------------------------|



  Eb

  So if you see me         acting strangely 

e------------------------|------------------------|
B------------------------|------------------------|
G------------------------|------------------------|
D-8--8--8--8--8--8--8--8-|-8--8--8--8--8--8--8--8-|
A-6--6--6--6--6--6--6--6-|-6--6--6--6--6--6--6--6-|
E------------------------|------------------------|



  C#                                         D

  Don't be surprised

e------------------------|------------------------|
B------------------------|------------------------|
G------------------------|------------------------|
D-6--6--6--6--6--6--6--6-|-6--6--6--6--6--6--7--7-|
A-4--4--4--4--4--4--4--4-|-4--4--4--4--4--4--5--5-|
E------------------------|------------------------|



  Eb

  I'm just a man who       needed someone

e------------------------|------------------------|
B------------------------|------------------------|
G------------------------|------------------------|
D-8--8--8--8--8--8--8--8-|-8--8--8--8--8--8--8--8-|
A-6--6--6--6--6--6--6--6-|-6--6--6--6--6--6--6--6-|
E------------------------|------------------------|



  C#                                         

  And somewhere to hide                To keep me     

e------------------------|------------------------|
B------------------------|------------------------|
G------------------------|------------------------|
D-6--6--6--6--6--6--6--6-|-6--6--6--6--6--6--6--6-|
A-4--4--4--4--4--4--4--4-|-4--4--4--4--4--4--4--4-|
E------------------------|------------------------|



  B                        C#

  Alive

e------------------------|------------------------|
B------------------------|------------------------|
G-4--4--4--4--4--4--4--4-|-6--6--6--6--6--6--6--6-|
D-4--4--4--4--4--4--4--4-|-6--6--6--6--6--6--6--6-|
A-2--2--2--2--2--2--2--2-|-4--4--4--4--4--4--4--4-|
E------------------------|------------------------|



  Eb

  Just keep me alive 

e------------------------|------------------------|
B------------------------|------------------------|
G------------------------|------------------------|
D-8--8--8--8--8--8--8--8-|-8--8--8--8--8--8--8--8-|
A-6--6--6--6--6--6--6--6-|-6--6--6--6--6--6--6--6-|
E------------------------|------------------------|



  B                        C#

  Somewhere to hide

e------------------------|------------------------|
B------------------------|------------------------|
G-4--4--4--4--4--4--4--4-|-6--6--6--6--6--6--6--6-|
D-4--4--4--4--4--4--4--4-|-6--6--6--6--6--6--6--6-|
A-2--2--2--2--2--2--2--2-|-4--4--4--4--4--4--4--4-|
E------------------------|------------------------|



  Eb

  Just keep me alive

e------------------------|------------------------|
B------------------------|------------------------|
G------------------------|------------------------|
D-8--8--8--8--8--8--8--8-|-8--8--8--8--8--8--8--8-|
A-6--6--6--6--6--6--6--6-|-6--6--6--6--6--6--6--6-|
E------------------------|------------------------|



  Eb

  I'm not a robot          without emotions

e------------------------|------------------------|
B------------------------|------------------------|
G------------------------|------------------------|
D-8--8--8--8--8--8--8--8-|-8--8--8--8--8--8--8--8-|
A-6--6--6--6--6--6--6--6-|-6--6--6--6--6--6--6--6-|
E------------------------|------------------------|



  C#                                         D

  I'm not what you see

e------------------------|------------------------|
B------------------------|------------------------|
G------------------------|------------------------|
D-6--6--6--6--6--6--6--6-|-6--6--6--6--6--6--7--7-|
A-4--4--4--4--4--4--4--4-|-4--4--4--4--4--4--5--5-|
E------------------------|------------------------|



  Eb

  I've come yo help you    with your problems

e------------------------|------------------------|
B------------------------|------------------------|
G------------------------|------------------------|
D-8--8--8--8--8--8--8--8-|-8--8--8--8--8--8--8--8-|
A-6--6--6--6--6--6--6--6-|-6--6--6--6--6--6--6--6-|
E------------------------|------------------------|



  C#                                         D

  So we can be free
  
e------------------------|------------------------|
B------------------------|------------------------|
G------------------------|------------------------|
D-6--6--6--6--6--6--6--6-|-6--6--6--6--6--6--7--7-|
A-4--4--4--4--4--4--4--4-|-4--4--4--4--4--4--5--5-|
E------------------------|------------------------|



  Eb

  I'm not a hero           I'm not a saviour

e------------------------|------------------------|
B------------------------|------------------------|
G------------------------|------------------------|
D-8--8--8--8--8--8--8--8-|-8--8--8--8--8--8--8--8-|
A-6--6--6--6--6--6--6--6-|-6--6--6--6--6--6--6--6-|
E------------------------|------------------------|



  C#                                         D

  Forget what you know  

e------------------------|------------------------|
B------------------------|------------------------|
G------------------------|------------------------|
D-6--6--6--6--6--6--6--6-|-6--6--6--6--6--6--7--7-|
A-4--4--4--4--4--4--4--4-|-4--4--4--4--4--4--5--5-|
E------------------------|------------------------|



  Eb

  I'm just a man whose     circumstances  

e------------------------|------------------------|
B------------------------|------------------------|
G------------------------|------------------------|
D-8--8--8--8--8--8--8--8-|-8--8--8--8--8--8--8--8-|
A-6--6--6--6--6--6--6--6-|-6--6--6--6--6--6--6--6-|
E------------------------|------------------------|



  C#                                         

  Went beyond his control              Beyond my

e------------------------|------------------------|
B------------------------|------------------------|
G------------------------|------------------------|
D-6--6--6--6--6--6--6--6-|-6--6--6--6--6--6--6--6-|
A-4--4--4--4--4--4--4--4-|-4--4--4--4--4--4--4--4-|
E------------------------|------------------------|



  B                        C#

  control  

e------------------------|------------------------|
B------------------------|------------------------|
G-4--4--4--4--4--4--4--4-|-6--6--6--6--6--6--6--6-|
D-4--4--4--4--4--4--4--4-|-6--6--6--6--6--6--6--6-|
A-2--2--2--2--2--2--2--2-|-4--4--4--4--4--4--4--4-|
E------------------------|------------------------|



  Eb

  We all need control
[ Tab from: http://www.guitartabs.cc/tabs/s/styx/mr_roboto_tab.html ]
e------------------------|------------------------|
B------------------------|------------------------|
G------------------------|------------------------|
D-8--8--8--8--8--8--8--8-|-8--8--8--8--8--8--8--8-|
A-6--6--6--6--6--6--6--6-|-6--6--6--6--6--6--6--6-|
E------------------------|------------------------|



  B                        C#

  I need control  

e------------------------|------------------------|
B------------------------|------------------------|
G-4--4--4--4--4--4--4--4-|-6--6--6--6--6--6--6--6-|
D-4--4--4--4--4--4--4--4-|-6--6--6--6--6--6--6--6-|
A-2--2--2--2--2--2--2--2-|-4--4--4--4--4--4--4--4-|
E------------------------|------------------------|



  Eb

  We all need control

e------------------------|------------------------|
B------------------------|------------------------|
G------------------------|------------------------|
D-8--8--8--8--8--8--8--8-|-8--8--8--8--8--8--8--8-|
A-6--6--6--6--6--6--6--6-|-6--6--6--6--6--6--6--6-|
E------------------------|------------------------|



  Bb G# C# C  G# F#

  I am the modern man
                     (secret, secret i got a secret)
 Gtr 1
e---------------------------------------------------|
B---------------------------------------------------|
G---------------------------------------------------|
D---------------------------------------------------|
A-------4--3--------4--4--4--4--4--4--4--4----------|
E-6--4--------4--2--2--2--2--2--2--2--2--2----------|
                                                    |
                                                    |
 Gtr 2                                              |
e---------------------------------------------------|
B---------------------------------------------------|
G-3-----6--5----------------------------------------|
D----6--------6--4~~~~~~~~~~------------------------|
A---------------------------------------------------|
E---------------------------------------------------|



  Bb G# C# C  G# F#

  Who hides behind a mask
                   (secret, secret i got a secret)
 Gtr 1
e-------------------------------------------------|
B-------------------------------------------------|
G-------------------------------------------------|
D-------------------------------------------------|
A-------4--3--------4--4--4--4--4--4--4--4--------|
E-6--4--------4--2--2--2--2--2--2--2--2--2--------|
                                                  |
                                                  |
 Gtr 2                                            |
e-------------------------------------------------|
B-------------------------------------------------|
G-3-----6--5--------------------------------------|
D----6--------6--4~~~~~~~~~~----------------------|
A-------------------------------------------------|
E-------------------------------------------------|



  Bb G# C# C  G# F#

  So no one else can see
                     (secret, secret i got a secret)
 Gtr 1
e---------------------------------------------------|
B---------------------------------------------------|
G---------------------------------------------------|
D---------------------------------------------------|
A-------4--3--------4--4--4--4--4--4--4--4----------|
E-6--4--------4--2--2--2--2--2--2--2--2--2----------|
                                                    |
                                                    |
 Gtr 2                                              |
e---------------------------------------------------|
B---------------------------------------------------|
G-3-----6--5----------------------------------------|
D----6--------6--4~~~~~~~~~~------------------------|
A---------------------------------------------------|
E---------------------------------------------------|



  Bb G# C# C  C# Eb

  My true identity 
 Gtr 1
e-----------------------|
B-----------------------|
G-----------------------|
D----------------8--8---|
A-------4--3--4--6--6---|
E-6--4------------------|
                        |
                        |
  Gtr 2                 |
e-----------------------|
B-----------------------|
G-3-----6--5--6--8--8---|
D----6------------------|
A-----------------------|
E-----------------------|


  Eb

e------------------------|------------------------|
B------------------------|------------------------|
G------------------------|------------------------|
D-8--8--8--8--8--8--8--8-|-8--8--8--8--8--8--8--8-|
A-6--6--6--6--6--6--6--6-|-6--6--6--6--6--6--6--6-|
E------------------------|------------------------|



  Eb

  Domo Arigato Mr. Roboto  Domo       Domo
                 (Robot Voice) Domo          Domo

e------------------------|------------------------|
B------------------------|------------------------|
G------------------------|------------------------|
D-8--8--8--8--8--8--8--8-|-8--8--8--8--8--8--8--8-|
A-6--6--6--6--6--6--6--6-|-6--6--6--6--6--6--6--6-|
E------------------------|------------------------|



  Eb

  Domo Arigato Mr. Roboto  Domo        Domo
                 (Robot Voice) Domo          Domo

e------------------------|------------------------|
B------------------------|------------------------|
G------------------------|------------------------|
D-8--8--8--8--8--8--8--8-|-8--8--8--8--8--8--8--8-|
A-6--6--6--6--6--6--6--6-|-6--6--6--6--6--6--6--6-|
E------------------------|------------------------|



  Eb                       C#

  e------------------------|------------------------|
B------------------------|------------------------|
G------------------------|------------------------|
D-8--8--8--8--8--8--8--8-|-6--6--6--6--6--6--6--6-|
A-6--6--6--6--6--6--6--6-|-4--4--4--4--4--4--4--4-|
E------------------------|------------------------|



  Eb                       C#

  e------------------------|------------------------|
B------------------------|------------------------|
G------------------------|------------------------|
D-8--8--8--8--8--8--8--8-|-6--6--6--6--6--6--6--6-|
A-6--6--6--6--6--6--6--6-|-4--4--4--4--4--4--4--4-|
E------------------------|------------------------|



  Eb                       C#

  e------------------------|------------------------|
B------------------------|------------------------|
G------------------------|------------------------|
D-8--8--8--8--8--8--8--8-|-6--6--6--6--6--6--6--6-|
A-6--6--6--6--6--6--6--6-|-4--4--4--4--4--4--4--4-|
E------------------------|------------------------|


  Eb                       C#

  e------------------------|------------------------|
B------------------------|------------------------|
G------------------------|------------------------|
D-8--8--8--8--8--8--8--8-|-6--6--6--6--6--6--6--6-|
A-6--6--6--6--6--6--6--6-|-4--4--4--4--4--4--4--4-|
E------------------------|------------------------|



  Eb                       C#

e------------------------|------------------------|
B------------------------|------------------------|
G------------------------|------------------------|
D-8--8--8--8--8--8--8--8-|-6--6--6--6--6--6--6--6-|
A-6--6--6--6--6--6--6--6-|-4--4--4--4--4--4--4--4-|
E------------------------|------------------------|



  Eb                       C#

e------------------------|------------------------|
B------------------------|------------------------|
G------------------------|------------------------|
D-8--8--8--8--8--8--8--8-|-6--6--6--6--6--6--6--6-|
A-6--6--6--6--6--6--6--6-|-4--4--4--4--4--4--4--4-|
E------------------------|------------------------|



  Eb                       C#

  Thank you
  Domo Arigato Mr. Roboto  Domo Arigato Mr. Roboto
  Domo Arigato Mr. Roboto  Domo Arigato Mr. Roboto(Robot Voice)

e------------------------|------------------------|
B------------------------|------------------------|
G------------------------|------------------------|
D-8--8--8--8--8--8--8--8-|-6--6--6--6--6--6--6--6-|
A-6--6--6--6--6--6--6--6-|-4--4--4--4--4--4--4--4-|
E------------------------|------------------------|


 
  B                        C#

e------------------------|------------------------|
B------------------------|------------------------|
G-4--4--4--4--4--4--4--4-|-6--6--6--6--6--6--6--6-|
D-4--4--4--4--4--4--4--4-|-6--6--6--6--6--6--6--6-|
A-2--2--2--2--2--2--2--2-|-4--4--4--4--4--4--4--4-|
E------------------------|------------------------|


  Eb

e------------------------|------------------------|
B------------------------|------------------------|
G------------------------|------------------------|
D-8--8--8--8--8--8--8--8-|-8--8--8--8--8--8--8--8-|
A-6--6--6--6--6--6--6--6-|-6--6--6--6--6--6--6--6-|
E------------------------|------------------------|


  B                        C#

e------------------------|------------------------|
B------------------------|------------------------|
G-4--4--4--4--4--4--4--4-|-6--6--6--6--6--6--6--6-|
D-4--4--4--4--4--4--4--4-|-6--6--6--6--6--6--6--6-|
A-2--2--2--2--2--2--2--2-|-4--4--4--4--4--4--4--4-|
E------------------------|------------------------|


  B                        C#

e------------------------|------------------------|
B------------------------|------------------------|
G-4--4--4--4--4--4--4--4-|-6--6--6--6--6--6--6--6-|
D-4--4--4--4--4--4--4--4-|-6--6--6--6--6--6--6--6-|
A-2--2--2--2--2--2--2--2-|-4--4--4--4--4--4--4--4-|
E------------------------|------------------------|


  Eb

e------------------------|------------------------|
B------------------------|------------------------|
G------------------------|------------------------|
D-8--8--8--8--8--8--8--8-|-8--8--8--8--8--8--8--8-|
A-6--6--6--6--6--6--6--6-|-6--6--6--6--6--6--6--6-|
E------------------------|------------------------|




Break down(No guitar going on here, until the end)

e---------------------------------------------|
B---------------------------------------------|
G---------------------------------------------|
D---------------------------------------------|
A-----------------------------4--6------------|
E-----------------------------------4~~~~~~~--|




  Bb G# C# C  G# F#

  The time has come at last
                           (secret, secret i got a secret)
 Gtr 1
e---------------------------------------------------------|
B---------------------------------------------------------|
G---------------------------------------------------------|
D---------------------------------------------------------|
A-------4--3--------4--4--4--4--4--4--4--4----------------|
E-6--4--------4--2--2--2--2--2--2--2--2--2----------------|
                                                          |
                                                          |
 Gtr 2                                                    |
e---------------------------------------------------------|
B---------------------------------------------------------|
G-3-----6--5----------------------------------------------|
D----6--------6--4~~~~~~~~~~------------------------------|
A---------------------------------------------------------|
E---------------------------------------------------------|



  Bb G# C# C  G# F#

  To throw away this mask
                   (secret, secret i got a secret)
 Gtr 1
e-------------------------------------------------|
B-------------------------------------------------|
G-------------------------------------------------|
D-------------------------------------------------|
A-------4--3--------4--4--4--4--4--4--4--4--------|
E-6--4--------4--2--2--2--2--2--2--2--2--2--------|
                                                  |
                                                  |
 Gtr 2                                            |
e-------------------------------------------------|
B-------------------------------------------------|
G-3-----6--5--------------------------------------|
D----6--------6--4~~~~~~~~~~----------------------|
A-------------------------------------------------|
E-------------------------------------------------|



  Bb G# C# C  G# F#

  Now everone can see
                     (secret, secret i got a secret)
 Gtr 1
e---------------------------------------------------|
B---------------------------------------------------|
G---------------------------------------------------|
D---------------------------------------------------|
A-------4--3--------4--4--4--4--4--4--4--4----------|
E-6--4--------4--2--2--2--2--2--2--2--2--2----------|
                                                    |
                                                    |
 Gtr 2                                              |
e---------------------------------------------------|
B---------------------------------------------------|
G-3-----6--5----------------------------------------|
D----6--------6--4~~~~~~~~~~------------------------|
A---------------------------------------------------|
E---------------------------------------------------|



  Bb G# C# C  C# Eb
  
  My true identity
 Gtr 1
e-----------------------|
B-----------------------|
G-----------------------|
D----------------8--8---|
A-------4--3--4--6--6---|
E-6--4------------------|
                        |
                        |
  Gtr 2                 |
e-----------------------|
B-----------------------|
G-3-----6--5--6--8--8---|
D----6------------------|
A-----------------------|
E-----------------------|



  Eb

  I'm Killroy        Killroy         Killroy        Killroy

e-----------------------------------------------------------|
B-----------------------------------------------------------|
G-----------------------------------------------------------|
D-8--8---------------8--8------------8--8-----------8--8----|
A-6--6---------------6--6------------6--6-----------6--6----|
E-----------------------------------------------------------|



  Eb

e-------||
B-------||
G-------||
D-8--8--||
A-6--6--||
E-------||
Comments