Styx - Miss America Chords & Tabs

 

Miss America Chords & Tabs

Styx Chords & Tabs

Version: 3 Type: Tab 0 ratings
1 star 2 stars 3 stars 4 stars 5 stars
comments

Miss America Tab

ive seen the other takes on this on the site so i give you a better one enjoy

[ Tab from: http://www.guitartabs.cc/tabs/s/styx/miss_america_tab_ver_3.html ]
---------------------------|----------------------------|
---------------------------|----------------------------|
-9p7-9--------9h12p9--5-7--|--9p7-9--------9h12p9--7-5--|
----------------------5-7--|-----------------------7-5--|
-------7-10-7---------3-5--|--------7-10-7---------5-3--|
---------------------------|----------------------------|


---------------------------|--7-7-7-7-7-3-5-5-5--|
---------------------------|--7-7-7-7-7-3-5-5-5--|
-9p7-9--------9h12p9--5-7--|--8-8-8-8-8-4-6-6-6--|
----------------------5-7--|--9-9-9-9-9-5-7-7-7--|
-------7-10-7---------3-5--|--9-9-9-9-9-5-7-7-7--|
---------------------------|--7-7-7-7-7-3-5-5-5--|
Comments