Styx - Lady Chords & Tabs

 

Lady Chords & Tabs

Styx Chords & Tabs

Version: 1 Type: Bass Tab 0 ratings
1 star 2 stars 3 stars 4 stars 5 stars
comments

Lady Bass Tab

Song: "Lady95"
Artist: Styxx
Album: ?
Tabbed by Kim Laush
Transcription Arrangment by Pat Mcclafferty

Please send comments or corrections to bigpmo63@home.com



Verse

G-----------7-9-7-------5-7-75------7-9-7------5-7-75----
D-7-------7------9---5--------7---7------9----5------7---
A----765----------7/3-----------5----------7/3---------5-
E--------------------------------------------------------

G---7-9-7-------5-7-75------7-9/1412---------------------
D-7------9----5--------7---7-----------------------------
A---------7/3-----------5--------------------------------
E------------------------------------3-33-66665555-------

Chorus
G----------------------------------------------------
D----------------------------------------------------
A-3h5-555-3-5-3-5-3--5--0h3-333-0-3-0-3--------------
E-----------------------------------------3----------

G----------------------------------------------------
D---------------------------------------------------- 
A-3h5-555-3-5-3-5-3--5--0h3-333-0-3-0-3--------------
E-----------------------------------------3----------

G----------------------------------------------------
D---------------------------------------------------- 
A-3h5-555-3-5-3-5-3--5--0h3-333-0-3-0-3--------------
E-----------------------------------------3----------

G----------------------------------------------------
D---------------------------------------------------- 
A-3h5-555--------------------------------------------
E---------66665555-----------------------------------

G----------------------------------------------------
D---------------------------------------------------- 
A-3h5-555-3-5-3-5-3--5--0h3-333-0-3-0-3--------------
E-----------------------------------------3----------
[ Tab from: http://www.guitartabs.cc/tabs/s/styx/lady_btab.html ]
G----------------------------------------------------
D----------------------------------------------------
A-3h5-555-3-5-3-5-3--5--0h3-333-0-3-0-3--------------
E-----------------------------------------3----------

G----------------------------------------------------
D----------------------------------------------------
A-3h5-555-3-5-3-5-3--5--0h3-333-0-3-0-3--------------
E-----------------------------------------3----------

G----------------------------------------------------
D----------------------------------------------------
A-3h5-555-3-5-3-5-3--5-------------------------------
E-----------------------33333333-666655555-----------



Repeat Twice
G----------------------------------------------------
D:---------------------------------------------------
A:-5-5555-5555-555 5-5-5-3-3333-3333-333-------------
E---------------------------------------3------------

G----------------------------------------------------
D---------------------------------------------------- 
A-5-5555-5555-555 5-5-5-3-3333-3333-333--------------
E---------------------------------------3------------

G----------------------------------------------------
D----------------------------------------------------
A-5-5555-5555-555 5-5-5-3-3333-3333-333--------------
E---------------------------------------3------------


G----------------------------------------------------|
D---------------------------------------------------:|
A-5-5555-5555-555 5-5-5-3-3333-3333-333-------------:|
E-----------------------------------------6-5--------|


End with 
G----------------------------------------------------
D---------------------------------------------------- 
A---5---5--------------------------------------------
E----------------------------------------------------

Comments