Style Council - Your The Best Thing Chords & Tabs

 

Your The Best Thing Chords & Tabs

Style Council Chords & Tabs

Version: 1 Type: Tab 0 ratings
1 star 2 stars 3 stars 4 stars 5 stars
comments

Your The Best Thing Tab

			     your the best thing - the style council

sorry intro only thats mainly the only electric in the tune,theres the odd lick here and
there and a second guitar.Also the solo is a sax.I might transcribe the solo into guitar
if anyone wants it,just mail me, :) enjoy.Chow for now!
NB:listen to the song for proper timing

Tabbed by:Ste litherland
Email:sliv@madheads.co.uk

*=there is a fast hammer on and pull off twice in this lickafter the hammer on pull off
to open string,ive marked them both with a asterix

Tuning:standard

e|---------------------------------------------------------------------------|
B|---------------------------------------------------------------------------|
G|---------------------------------------------------------------------------|
D|-14-14-14-------------------9--11----------------------------------------- |
A|----------15-15v-----9h11------------11p9h11b12----------------------------|
E|---------------------------------------------------------------------------|
[ Tab from: http://www.guitartabs.cc/tabs/s/style_council/your_the_best_thing_tab.html ]
e|---------------------------------------------------------------------------|
B|---------------------------------------------------------------------------|
G|---------------------------------------------------------------------------|
D|---------------------------------9-9-9h11----------------------------------|
A|-------7-9----7-----7-9-7-9s11------------11h-s9---9--7---7----------------|
E|--7h9------------9--------------------------------------9------------------|

e|---------------------------------------------------------------------------|
B|---------------------------------------------------------------------------|
G|---------------------15h16*--------------------15h16*----------------------|
D|--------14--14v----------------------14-14v------------14v------------------|
A|-14h16----------16------------14h16----------------------------------------|
E|---------------------------------------------------------------------------|

e|---------------------------------------------------------------------------|
B|----------------------------------------------------------21-21-21p19------|
G|-----------------------------------------------16-16-18---------------21---|
D|---------------14v-------14b-s16-14--16b-s18-------------------------------|
A|--------14h16-------16-----------------------------------------------------|
E|-14h16---------------------------------------------------------------------|

e|---------------------------------------------------------------------------|
B|-19h21---17---14-----------------------------------------------------------|
G|-------------------16----14--13--------------------------------------------|
D|---------------------------------------------------------------------------|
A|---------------------------------------------------------------------------|
E|---------------------------------------------------------------------------|
Comments