Stutterfly - Lifes Disease Chords & Tabs

 

Lifes Disease Chords & Tabs

Stutterfly Chords & Tabs

Version: 1 Type: Tab 0 ratings
1 star 2 stars 3 stars 4 stars 5 stars
comments

Lifes Disease Tab

verse
e--------------------------------------|
b--------------------------------------|
g--------------------------------------|
d----11------11-------11-------11------|
a------9--------9--------9--------9----|
d--9-----9---------0--------0----------|
[ Tab from: http://www.guitartabs.cc/tabs/s/stutterfly/lifes_disease_tab.html ]
chorus
e-------------------------------------------------|
b-------------------------------------------------|
g-------------------------------------------------|
d------11-------11-------11------11---------------|
a----9----9---9----9---9----9--9----9-------------|
d--9--------9--------0--------0-------------------|

e-------------------------------------------------|
b-------------------------------------------------|
g-------------------------------------------------|
d------9-------9-------7-------7------------------|
a----7---7---7---7---5---5---5---5----------------|
d--7-------7-------5-------5----------------------|
Comments