Stutterfly - Gun In Hand Chords & Tabs

 

Gun In Hand Chords & Tabs

Stutterfly Chords & Tabs

Version: 1 Type: Tab 0 ratings
1 star 2 stars 3 stars 4 stars 5 stars
comments

Gun In Hand Tab

   
StutterFly: www.stutterfly.com
Awesome band from Canada...
h=hammer
PM...=Palm Mute
Tuning: Drop D


Intro:
E|-----------------------------------|
B|-----------------------------------|
G|-----------------------------------|
D|-6-7-6--0-0--0-0-0--0-0-0--0--0--0-|2x
A|-4-4-4--0-0--0-0-0--0-0-0--0--0--0-|
D|-4-4-4--0-0--0-0-0--0-0-0--0--0--0-|
(No Dist.)| T u r n  o n  Distorion | 

E|-----------------------------------|
B|-----------------------------------|
G|-----------------------------------|
D|-6-7-6--0-0--0-0-0--0-0-0--0--0--0-|4x
A|-4-4-4--0-0--0-0-0--0-0-0--0--0--0-|
D|-4-4-4--0-0--0-0-0--0-0-0--0--0--0-|                                  
| D I S T O R T I O N . . .  .  .  .|

(0:35) 
               Guitar 1                                 Guitar 2
E|----------------------------------------|------------------------------------|
B|----------------------------------------|------------------------------------|
G|----------------------------------------|-----7-----------7------------------|
D|----------------------------------------|--7-----7-----------7-7-------------|
A|-0-4-4-4--0-4-4-4--2-0-0-0--2-0-0-0-----|------------------------------------|
D|-0-4-4-4--0-4-4-4--2-0-0-0--2-0-0-0-----|------------------------------------|
PM . . . .  . . . .  . . . .  . . . .  x4  <~After the second time add this ^  x2        

(0:59)                            GUITAR 1
E|-----------------------------------------------------------------------------|
B|-----------------------------------------------------------------------------|
G|-----------------------------------------------------------------------------|
D|-----------------------------------------------------------------------------|
A|-0-4-4-4-4-4-4-4--0-4-4-4-4-4-4-4---2-0-0-0-0-0-0-0--2-0-0-0-0-0-0-0---------|
D|-0-4-4-4-4-4-4-4--0-4-4-4-4-4-4-4---2-0-0-0-0-0-0-0--2-0-0-0-0-0-0-0---------|
 PM. . . . . . . .  . . . . . . . .   . . . . . . . .  . . . . . . . .   
[ Tab from: http://www.guitartabs.cc/tabs/s/stutterfly/gun_in_hand_tab.html ]
		      GUITAR 2
E|--------------------------------|-------------------|
B|--------------------------------|-------------------|
G|-7-------7------7---------------|----7----7---------|
D|----7-7----7-7----7-------------|-------7----7------|
A|--------------------------------|--------------x1---|
D|--------------------------------|-------------------|
             x 8                                                

CHORUS: BOTH GUITAR 1 and 2
(2:13)
E|-------------------------------------|
B|-------------------------------------|
G|-------------------------------------|
D|-4-6-7-6--0-0--0-0-0--0-0-0--0--0--0-|x4
A|-4-4-4-4--0-0--0-0-0--0-0-0--0--0--0-|
D|-4-4-4-4--0-0--0-0-0--0-0-0--0--0--0-|
(Guitar 2 Lets notes ring into the next part)

                     Guitar 1
E|----------------------------------------------------|
B|----------------------------------------------------|
G|----------------------------------------------------|
D|----7-6---------7-6----------7-6---------7-6--------|x6
A|--------7-4---------7-4----------7-4---------7-4----|
D|-44----------44-----------00----------00------------|
 This is played clean                                                 

(3:41)                     Guitar 2
E|-----------------------------------------------------|
B|-----------------------------------------------------|
G|-----------------------------------------------------|
D|-4-4-4-4-4-xx-4-4-4-4-4-xx-0-0-0-0-0-xx-0-0-0-0-0----|x4
A|-4-4-4-4-4-xx-4-4-4-4-4-xx-0-0-0-0-0-xx-0-0-0-0-0----|
D|-4-4-4-4-4-xx-4-4-4-4-4-xx-0-0-0-0-0-xx-0-0-0-0-0----|
                                                               
                     Guitar 1
E|-----------------------------------------------|
B|-----------------------------------------------|
G|--7-6---------7-6----------7-6----------7-6----|
D|------7-----------7------------7------------7--|
A|-----------------------------------------------|
D|-----------------------------------------------|
  
(4:19)                         
            Guitar 1
E|------------------------------------|-----|
B|------------------------------------|-----|
G|------------------------------------|-----|
D|-4-6-7-6--4-6-7-6--4-6-7-6--4-6-7-6-|-0---|
A|-4-4-4-4--4-4-4-4--4-4-4-4--4-4-4-4-|-0---|
D|-4-4-4-4--4-4-4-4--4-4-4-4--4-4-4-4-|-0---|
 Played clean             4x        (Let Ring)

Then back to Chorus
During the chorus at the end he palm mutes the zeros at some parts
Im too lazy to tab it so there you go, you can figure it out from here.
Any corrections, complaints, numbers, comments, whatever just send it to
Formula4Failure@aol.com hehe no viruses please
Comments