Stutterfly - Gun In Hand Chords & Tabs

 

Gun In Hand Chords & Tabs

Stutterfly Chords & Tabs

Version: 1 Type: Bass Tab

Gun In Hand Bass Tab

   
Artist: Stutterfly
Song: Gun in Hand
Album: And We Are Bled Of Color

Drop D


Intro

g|-------------------------|
d|-------------------------|
a|-------------------------|
D|-00-000-00-0-00----------|

(cont.)
g|----------------------------------------|
d|----------------------------------------|
a|----------------------------------------|
D|-44444444444444444--00-000-00-0-00------|

Verse:

g|------------------------------------------------------------------------|
d|------------------------------------------------------------------------|
a|------------------------------------------------------------------------|
D|-4-4-4-4--4-4-4-4--0-0-0-0--0-0-0-0--4-4-4-4--4-4-4-4--0-0-0-0--0-0-0-0-|

Pre-Chorus:
[ Tab from: http://www.guitartabs.cc/tabs/s/stutterfly/gun_in_hand_btab.html ]
g|--------------------------------------------------|
d|--------------------------------------------------|
a|--------------------------------------------------|
D|-4-(x16)--0-(x16)--4-(x16)--0-(x16)---------------|

Chorus
Play x2

g|-----------------------------------------------------|
d|-----------------------------------------------------|
a|-----------------------------------------------------|
D|-44444444--00-000-00-0-00-44444444--000--00-00-0-000-|

Verse

Pre-Chorus

Chorus x 2

Bridge
Play 1st part x 4          2nd part x2

g|--------------------|-------------------|
d|--------------------|-------------------|
a|--4-2--2-0----------|-------------------|
D|-----------4-2--2-0-|--0----4-----7-----|

Chorus x2

Outro
Play x 4

g|-------------------------------------------|
d|-------------------------------------------|
a|-------------------------------------------|
D|-44444444444-00-000-00-0-00----------------|


Note: End Song on open E string