Stutterfly - Frail Chords & Tabs

 

Frail Chords & Tabs

Stutterfly Chords & Tabs

Version: 1 Type: Tab 0 ratings
1 star 2 stars 3 stars 4 stars 5 stars
comments

Frail Tab

StutterFly: www.stutterfly.com
Awesome band from Canada
Song:Frail
Album:Broken in Pieces...
Tuning: Drop D


Intro:      Guitar 1

E|--4-3--4-3---1h3p1-----------------|
B|-----------------------------------|
G|-0---0-----0-----------------------|
D|-----------------------------------|
A|-----------------------------------|
D|-----------------------------------|

Guitar 2 comes in, don't know this little part. Help if u know.

Meat and Potatoes: Work on timing.
[ Tab from: http://www.guitartabs.cc/tabs/s/stutterfly/frail_tab.html ]
E|--------------------------------------------------------------------------|
B|--------------------------------------------------------------------------|
G|--------------------------------------------------------------------------|
D|-5-5-5-5-5--1-1-1-1-1-0----xx--555555-6h8-----xx--------------------------|
A|-5-5-5-5-5--1-1-1-1-1-0-x7-xx--555555-6h8-x7--xx--------------------------|
D|-5-5-5-5-5--1-1-1-1-1-0----xx--555555-6h8-----xx--------------------------|

Bridge:

E|--------------------     |---|
B|--------------------     |---|
G|--------------------     |---|
D|-88-77-55-33--------  x7 |-0-|
A|-66-55-33-11--------     |-0-|
D|--------------------     |-0-| Let it ring

Play first part of Meat and Potatoes again till end of song. The end.
Comments