Stun - Movement Chords & Tabs

 

Movement Chords & Tabs

Stun Chords & Tabs

Version: 2 Type: Tab 0 ratings
1 star 2 stars 3 stars 4 stars 5 stars
comments

Movement Tab

			     MOVEMENT - S.T.U.N.

Email: XxStock7xX@aol.com
Tuning: Standard

Listen to the song for timing because it is definately not shown.
Theres 3 intros-after 4 bars the next will come in, while still repeating the last
intro.. make sense? They are repeated through the whole song.

Intros:
e|-------|-------|-------|-------|
B|-------|-------|-------|-------|
G|-------|-------|-------|------.|
D|-------|-------|-------|------.| x2
A|-2-2---|-2-2---|-2-2---|-2-2---|
E|-0-0---|-0-0---|-0-0---|-0-0---|

e|----------------|----------------|----------------|-----------------|
B|----------------|----------------|----------------|-----------------|
G|-999-10101010-9-|-999-12121212-9-|-999-10101010-9-|-999-12121212-9-.|
D|-xxx--x-x-x-x-x-|-xxx--x-x-x-x-x-|-xxx--x-x-x-x-x-|-xxx--x-x-x-x-x-.| 
A|-777--8-8-8-8-7-|-777-10101010-7-|-777--8-8-8-8-7-|-777-10101010-7--|
E|----------------|----------------|----------------|-----------------|

e|-75777--|-87888--|-7577---|-8788---|
B|--------|--------|--------|--------|
G|--------|--------|--------|-------.|
D|--------|--------|--------|-------.| x2
A|--------|--------|--------|--------|
E|--------|--------|--------|--------|
 (with slight variations-some muting)



 "Our hearts are being bought.. "

e|----------|------------------|--------------|------------------|
B|----------|------------------|--------------|------------------|
G|-9-9-9-9--|-9-11-11-12-12-12-|-10-10-10-10--|-9-11-11-12-12-12-|
D|-x-x-x-x--|-x--x--x--x--x--x-|--x--x--x--x--|-x--x--x--x--x--x-|
A|-7-7-7-7--|-7--9--9-10-10-10-|--7--7--7--7--|-7--9--9-10-10-10-|
E|----------|------------------|--------------|------------------|
[ Tab from: http://www.guitartabs.cc/tabs/s/stun/movement_tab_ver_2.html ]
e|----------|-------------|-----------|------------|
B|----------|-------------|-----------|-12---------|
G|-9-9-9-9--|-9-7-7-7-7-7-|-9-9-9-9-9-|-12---------|
D|-x-x-x-x--|-x-x-x-x-x-x-|-x-x-x-x-x-|-12---------|
A|-7-7-7-7--|-7-5-5-5-5-5-|-7-7-7-7-7-|-10---------|
E|----------|-------------|-----------|------------|

e|-----*5*5*5*-|----------|-----------|------------|
B|-----*5*5*5*-|----------|-----------|------------|
G|-----*5*5*5*-|----------|-----------|-----------.| 
D|-----*5*5*5*-|----------|-----------|-----------.|
A|-7-7---------|-7-7------|-----------|------------|
E|-5-5---------|-5-5------|-----------|------------|
 
e|----------|-----------|----------|-----------|
B|----------|-----------|----------|-----------|
G|-2---2----|-2---5-5---|-2---2----|-2---5-5--.|
D|-2---2----|-2---5-5---|-2---2----|-0---5-5--.|
A|-0---0----|-0---3-3---|-0---0----|-0---3-3---|
E|---3---3--|---3-------|---3---3--|---3-------|

 "Its not everyone.."
e|----------|-------------|----------|--------------|
B|----------|-------12-12-|----------|-------12-12--|
G|----------|-------12-12-|----------|-------12-12-.|
D|----------|-------12-12-|----------|-------12-12-.|
A|----------|-------10-10-|----------|-------10-10--|
E|----------|-------------|----------|--------------|

e|--------------|----------------|--------------|---------------|
B|--------------|----------------|--------------|---------------|
G|---------9-9--|---------12-12--|--------------|---------------|
D|---------9-9--|---------12-12--|--------------|---------------|
A|-2-2-2-2-7-7--|-2-2-2-2-10-10--|--------------|---------------|
E|-0-0-0-0------|-0-0-0-0--------|--------------|---------------|

e|-----------|-----------|-----------|-----------|
B|-----------|-----------|-----------|-----------|
G|-99999999--|-88888888--|-77777777--|-77777777-.|
D|-xxxxxxxx--|-xxxxxxxx--|-xxxxxxxx--|-xxxxxxxx-.|
A|-77777777--|-66666666--|-55555555--|-55555555--|
E|-----------|-----------|-----------|-----------|

That is it.. good luck.

*=harmonics
x=muted
Comments