Stun - Love And Chaos Chords & Tabs

 

Love And Chaos Chords & Tabs

Stun Chords & Tabs

Version: 1 Type: Bass Tab 0 ratings
1 star 2 stars 3 stars 4 stars 5 stars
comments

Love And Chaos Bass Tab

Intro
G: ------------------------------------------|
D: ------------------------------------------|
A: ------------------------------------------|
E: 00-055-522-277-7-----------------------|

PreVerse
G: ------------------------------------------|
D: 22222222-----------55555555---------------|
A: --------122222222-5--------455555555------|
E: ------------------------------------------|

G: ------------------------------------------|
D: ------------------------------------------|
A: ------------------------------------------|
E: 00000000-33333333-00000000-77777777-------|

Verse X2                                     1st   2nd
G: --------44-------------------77--------|-----|-----|
D: 22222222----------44-55555555----------|-----|-----|
A: ----------22222222-------------55555555|-757-|-5~--|
E: ---------------------------------------|-----|-----|
[ Tab from: http://www.guitartabs.cc/tabs/s/stun/love_and_chaos_btab.html ]
PreChorus
G: ------------------------------------------|
D: ------------------------------------------|
A: ------------------------------------------|
E: 00000000/55555555/99999999/88888888-------|

Chorus
G: ------------------------------------------|
D: ------------------------------------------|
A: ------------------------------3-55555555--|
E: 00000000-5-77777777-5-33333333------------|

PreVerse X1
Verse X2
PreChorus X1
Chorus X2

Solo                                       1st   2nd
G: --------------------------------------|----|----|
D: 22222222------------55555555----------|----|----|
A: ---------122222222-5---------55555555-|-45-|-5--|
E: --------------------------------------|----|----|

G: --------------------------------------------|
D: --------------------------------------------|
A: --------------------------------------------|
E: 00000000-33333333-00000000-77777777---------|

Verse X2
Chorus X6

End On
G: ------------------------------------------|
D: ------------------------------------------|
A: ------------------------------------------|
E: 0-0-0-0 9~/-------------------------------|
Comments