Stun - Annihilation Of The Generations Chords & Tabs

 

Annihilation Of The Generations Chords & Tabs

Stun Chords & Tabs

Version: 2 Type: Tab 0 ratings
1 star 2 stars 3 stars 4 stars 5 stars
comments

Annihilation Of The Generations Tab

   
Intro
    Moderate Punk Rock Q=154
   4/4
    Gtr I
    E E E E E E E E    E E E E E E E E         E E E E E E E E
||------------------|-------------------||-||-------------------||
||o-----------------|-10-9-9---9-------o||-||o-----------------o||
||--9---9---9---9-9-|--9-9-9---9---9-9--||-||--9-9-9-9-9-9-9-9--||
||------------------|-------------------||-||-------------------||
||o-7---7---7---7-7-|--7-7-7---7---7-7-o||-||o-7-7-7-7-7-7-7-7-o||
||------------------|-------------------||-||-------------------||


  E E E E E E E E    E E Q  Q  E E     E E E E E E E E  4x
|-----------------|----------------||-------------------||
|-----------------|-10-9-9--9------||o-----------------o||
|-9---9---9---9-9-|--9-9-9--9--9-9-||--9-9-9-9-9-9-9-9--||
|-----------------|----------------||-------------------||
|-7---7---7---7-7-|--7-7-7--7--7-7-||o-7-7-7-7-7-7-7-7-o||
|-----------------|----------------||-------------------||


   Verse 1 & 2
    $
    E E E E E E E E    E E E E E E E E         E E E E E E E E  4x
||------------------|-------------------||-||-------------------||
||o-----------------|-10-9-9---9-------o||-||o-----------------o||
||--9---9---9---9-9-|--9-9-9---9---9-9--||-||--9-9-9-9-9-9-9-9--||
||------------------|-------------------||-||-------------------||
||o-7---7---7---7-7-|--7-7-7---7---7-7-o||-||o-7-7-7-7-7-7-7-7-o||
||------------------|-------------------||-||-------------------||


    E E E E E E E E    q   Q  E E Q      E E E E E E Q    E  E  E E E E E E
||------------------|---------7-7-7---||----------------|--------------------||
||o-----------------|-10--10---------o||----------------|---10-10-9-9-9-9-9--||
||--9-9-9-9-9-9-9-9-|--9---9--9-9-9---||-9-9-9-9-9-9----|----9--9-9-9-9-9-9--||
||------------------|-----------------||----------------|--------------------||
||o-7-7-7-7-7-7-7-7-|--7---7--7-7-7--o||-7-7-7-7-7-7----|----7--7-7-7-7-7-7--||
||------------------|-----------------||----------------|--------------------||


   Chorus (Half-Time)
    E=154
                                          D.S.
    E E Q  S S E S S E  3x E E Q  S S E S S E
||----------------------||---------------------||
||o--------------------o||---------------------||
||--9-9-9--x-9-9--------||-9-9-9--x-9-9--------||
||--9-9-9--x-7-7-9-9-9--||-9-9-9--x-7-7-9-9-9--||
||o-7-7-7--x-0-0-9-9-9-o||-7-7-7--x-0-0-9-9-9--||
||--0-0-0--x-----7-7-7--||-0-0-0--x-----7-7-7--||


 Guitar Solo
  E E E S S E E +S   S   S S   S   S  S  S  S S S S S      S     S       S     E  S S
|-------7-7-7-7-(7)-----11-9-|-9--------------------------------------------------x-x-|
|-----7-------------(0)------|---\12-12-(0)---------------------------------------x-x-|
|---8------------------------|-----------9--8-8-9-9-9b9.5==9b10==9b10.5==9b11==9r-x-x-|
|-9--------------------------|----------------------------------------------------x-x-|
|----------------------------|----------------------------------------------------x-x-|
|----------------------------|----------------------------------------------------x-x-|

[ Tab from: http://www.guitartabs.cc/tabs/s/stun/annihilation_of_the_generations_tab_ver_2.html ]
  S S  S   S  S S S S S S S S S S S  S    S S S S S S S  S  S +S    +E  S +S    +E
|-----------------x-x-----7---7-7----x--|----------------x--7-(7)b9r(7)-4-(4)b5r(4)-||
|-----------------x-x----------------x--|----------------x--------------------------||
|-----(9)-(9)-----x-x-9-9---9-----9-(9)-|----------------x--------------------------||
|-------------9-9-x-x----------------x--|-----9---9-9----x--------------------------||
|-7-7--7---7------x-x----------------x--|-7-7---7-----7-(7)-------------------------||
|-----------------x-x----------------x--|----------------x--------------------------||


 Bridge
  +E      +E  +E  E H      W          W          W
|-(4)b5.5r(4)-(4)--------|----------|----------|------|
|------------------------|----------|----------|------|
|------------------------|----------|----------|------|
|------------------------|----------|----------|------|
|------------------------|----------|----------|------|
|------------------------|----------|----------|------|


  H   a H      a  H   H        H    H      W
|------------|---------------|-----------|------||
|------------|---------------|-----------|------||
|------------|---------------|-----------|------||
|------------|---------------|-----------|------||
|------------|---------------|-----------|------||
|-5---5s8----|-8s12--12------|-5----3----|-0----||


   Chorus
    Q=154
    E E E E E E E E   E E E E E E E E  7x
||------------------|------------------||
||o-----------------|-----------------o||
||--9-9-9-9-9-9-9-9-|-9-9-9-9----------||
||--9-9-9-9-9-9-9-9-|-7-7-7-7-9-9-9-9--||
||o-7-7-7-7-7-7-7-7-|-0-0-0-0-9-9-9-9-o||
||--0-0-0-0-0-0-0-0-|---------7-7-7-7--||


                  Q=120
  E E E E E E E E   Q  Q  Q  Q
|-----------------|-------------|
|-----------------|-------------|
|-9-9-9-9-9-9-9-9-|-9-----9-----|
|-9-9-9-9-9-9-9-9-|-7-----7-----|
|-7-7-7-7-7-7-7-7-|-7-----7-----|
|-0-0-0-0-0-0-0-0-|-------------|


  Q  Q  Q  +Q      W          Q  +Q     +q   Q
|----------------|----------|----------------x--*|
|----------------|----------|----------------x--*|
|----------------|----------|----------------x--*|
|-9-----9--(9)\--|-2--------|----------------x--*|
|-9-----9--(9)\--|-2--------|----------------x--*|
|-7-----7--(7)\--|-0--------|-7--(7)b9r=(7)--x--*|




--------------------------------------------------------------------------------


Duration Legend
---------------
W - whole; H - half; Q - quarter; E - 8th; S - 16th; T - 32nd; X - 64th; a - acciaccatura
+ - note tied to previous; . - note dotted; .. - note double dotted
Uncapitalized letters represent notes that are staccato (1/2 duration)
Irregular groupings are notated above the duration line
Duration letters will always appear directly above the note/fret number it represents the
duration for.  Duration letters with no fret number below them represent rests.  Multi-
bar rests are notated in the form Wxn, where n is the number of bars to rest for.  Low
melody durations appear below the staff

Tablature Legend
----------------
 h   - hammer-on
 p   - pull-off
 b   - bend
 pb  - pre-bend
 r   - bend release (if no number after the r, then release immediately)
 /\  - slide into or out of (from/to "nowhere")
 s   - legato slide
 S   - shift slide
 - natural harmonic
[n]  - artificial harmonic
n(n) - tapped harmonic
 ~   - vibrato
 tr  - trill
 T   - tap
 TP  - trem. picking
 PM  - palm muting
\n/  - tremolo bar dip; n = amount to dip
 \n  - tremolo bar down
 n/  - tremolo bar up
/n\  - tremolo bar inverted dip
 =   - hold bend; also acts as connecting device for hammers/pulls
 <> - volume swell (louder/softer)
 x   - on rhythm slash represents muted slash
 o   - on rhythm slash represents single note slash

Misc Legend
-----------
 |  - bar
||  - double bar
||o - repeat start
o|| - repeat end
*|  - double bar (ending)
 :  - bar (freetime)
 $  - Segno
 &  - Coda
Tempo markers -  = BPM(8/16=s8/s16), where s8 = swing 8ths, s16 = swing 16ths
Comments