Stump Joe - The Sorcerers Apprentice Chords & Tabs

 

The Sorcerers Apprentice Chords & Tabs

Stump Joe Chords & Tabs

Version: 1 Type: Tab 1 rating
1 star 2 stars 3 stars 4 stars 5 stars
comments

The Sorcerers Apprentice Tab

   
#----------------------------------PLEASE NOTE--------------------------------#
#This file is the author's own work and represents their interpretation of the#
#song. You may only use this file for private study, scholarship, or research.#
#-----------------------------------------------------------------------------#

Date: Sun, 14 Jun 1998 05:27:29 +0900
From: Yuichirou  
Subject: s/stump_joe/the_sorcerers_apprentice.tab

 
                          JOE STUMP - Night Of The Living Shred     
                               The Sorcerer's Apprentice  
 
 
Tune down 1/2 step

           
^=bend
p=pull off
h= hammer on
s=slide



PART A

|---------------------------------------------------------------------|    
|---------------------------------------------------------------------|    
|---------------------------------------------------------------------|    
|--2-----------------------9s8----------8-7-6-5-----------------------|    
|--0---0-0-0-0-3-0-0-0-0-0-7s6--6-6-6-6-6-5-4-3-----------------------|    
|---------------------------------------------------------------------|    

|---------------------------------------------------------------------|    
|---------------------------------------------------------------------|    
|---------------------------------------------------------------------|    
|--2------------------------------------------------------------------|    
|--0---0-0-0-0-3-0-0-0-0-0-7s5----5-----6-----------------------------|    
|--------------------------5s3----3-----4-----------------------------|    




PART B

|---------------------------------------------------------------------|    
|---------------------------------------------------------------------|    
|---------------------------------------------------------------------|    
|---------------------------3--2h3p2----------------------------------|    
|----------3-----5-------------------5-3-2-------3-2---3--2-----------|    
|--5-0-3-5---5-0------0-3-5----------------5-3-5-----5-1--0--4--------|    




PART C

|---------------------------------------------------------------------|    
|---------------------------------------------------------------------|    
|---------------------------------------------------------------------|    
|--9---------10----------9---------10---------9-----7------7s9--------|    
|--7-7-7-7-7--8-8-8-8-8--7-7-7-7-7--8-8-8-8-8-7-7-7-5-5-5--5s7-7-7-7-7|    
|---------------------------------------------------------------------|    

|---------------------------------------------------------------------|    
|---------------------------------------------------------------------|    
|---------------------------------------------------------------------|    
|---------------------------------------------------------------------|    
|--7-7-7-7-7-7-7-7-7-7-7-7-7-7-7-7-7-7-7-7-7-7-7-7--------------------|    
|---------------------------------------------------------------------|    

|---------------------------------------------------------------------|    
|---------------------------------------------------------------------|    
|---------------------------------------------------------------------|    
|--9---------10----------9----------12-------------10------7----------|    
|--7-7-7-7-7--8-8-8-8-8--7-7-7-7-7--10-10-10-10-10--8-8-8--5-7-7------|    
|---------------------------------------------------------------------|
   
|---------------------------------------------------------------------|    
|---------------------------------------------------------------------|    
|---------------------------------------------------------------------|    
|-7s9-----------------------------------------------------------------|    
|-5s7-7-7-7-7-7-7-7-7----7-5-----5------------------------------------|    
|----------------------------8-7---8-7-5-8-7-5-3-7-5-3-1--------------|    

|---------------------------------------------------------------------|    
|---------------------------------------------------------------------|    
|---------------------------------------------------------------------|    
|--9---------10----------9---------10---------9-----7-----------------|    
|--7-7-7-7-7--8-8-8-8-8--7-7-7-7-7--8-8-8-8-8-7-7-7-5-5-5-------------|    
|---------------------------------------------------------------------|    

|---------------------------------------------------------------------|    
|---------------------------------------------------------------------|    
|---------------------------------------------------------------------|    
|--9---------10----------9----------12-------------10------7----------|    
|--7-7-7-7-7--8-8-8-8-8--7-7-7-7-7--10-10-10-10-10--8-8-8--5-7-7------|    
|---------------------------------------------------------------------|

|---------------------------------------------------------------------|    
|---------------------------------------------------------------------|    
|---------------------------------------------------------------------|    
|--9---------10----------9---------10---------9-----7---------3-------|    
|--7-7-7-7-7--8-8-8-8-8--7-7-7-7-7--8-8-8-8-8-7-7-7-5-5-5-----3-------|    
|-------------------------------------------------------------1-------|




PART D

|---------------------------------------------------------------------|    
|---------------------------------------------------------------------|    
|---------------------------------------------------------------------|    
|--5---4--------------------------------------------------------------|    
|--3---2---5---2------------------------------------------------------|    
|----------3---0------------------------------------------------------|    




PART E

|---------------------------------------------------------------------|    
|---------------------------------------------------------------------|    
|-----------5--------------------5---------7s9-----7------------------|    
|-2---------2----------2---------3---------5s7-----5------------------|    
|-0-0-0-0-0---0-0-0-0--0-0-0-0-0---0-0-0-0-----0-0---0-0-0-0----------|    
|---------------------------------------------------------------------|    

|---------------------------------------------------------------------|    
|---------------------------------------------------------------------|    
|-4-5-----4-----------------------------------------------------------|    
|-5-5-----5------5----------------------------------------------------|    
|-----0-0---0-0--5----------------------------------------------------|    
|---------------------------------------------------------------------|    

|---------------------------------------------------------------------|    
|---------------------------------------------------------------------|    
|-----------5--------------------5---------7s9-----7------------------|    
|-2---------2----------2---------3---------5s7-----5------------------|    
|-0-0-0-0-0---0-0-0-0--0-0-0-0-0---0-0-0-0-----0-0---0-0-0-0----------|    
|---------------------------------------------------------------------|    

|---------------------------------------------------------------------|    
|---------------------------------------------------------------------|    
|-4-5-----4-------7---------------------------------------------------|    
|-5-5-----5-------7---------------------------------------------------|    
|-----0-0---0-0-------------------------------------------------------|    
|---------------------------------------------------------------------|    




PART F
[ Tab from: http://www.guitartabs.cc/tabs/s/stump_joe/the_sorcerers_apprentice_tab.html ]
|---------------------------------------------------------------------|    
|---------------------------------------------------------------------|    
|---------------------------------------------------------------------|    
|-2---------2---------2---------2-------------------------------------|    
|-0--0--0---0--0--0---0--0--0---0--0--0----5--------------------------|    
|------------------------------------------3-0-3-4--------------------|    

|---------------------------------------------------------------------|    
|---------------------------------------------------------------------|    
|---------------------------------------------------------------------|    
|-2---------2---------2-------5--4------------------------------------|    
|-0-0-0-0---0-0-0-0---0-0-0---3--2--5---------------------------------|    
|-----------------------------------3---------------------------------|




PART G

|---------------------------------------------------------------------|    
|---------------------------------------------------------------------|    
|----5-5-----9-9-----5-5-----7-7-------9h10p9p7h9---7-----------------|    
|-s7-----7-7-----7-7-----7-7-----7-7--------------10--9-10------------|    
|---------------------------------------------------------------------|    
|---------------------------------------------------------------------|    

|---------------------------------------------------------------------|    
|---------------8-----------------------------------------------------|    
|--------7-9-10---10-9-7--9--10--7------------------------------------|    
|-7-9-10--------------------------------------------------------------|    
|---------------------------------------------------------------------|    
|---------------------------------------------------------------------|    

|---------------------------------------------------------------------|    
|---------------------------------------------------------------------|    
|-7h9---7--9--5-----5h7---4--5--7--5--4--2--4--5--2-------------------|    
|---------------------------------------------------------------------|    
|---------------------------------------------------------------------|    
|---------------------------------------------------------------------|    

|---------------------------------------------------------------------|    
|---------------------------------------------------------------------|    
|---------------------------------------------------------------------|    
|---------------------------------------------------------------------|    
|---------5-7-8-7-5---------------------------------------------------|    
|-4-5-7s8-----------8-7-5-4-------------------------------------------|    

|---------------------------------------------------------------------|    
|---------------------------------------------------------------------|    
|----5-5-----9-9-----5-5-----7-7-------9h10p9p7h9---7-----------------|    
|-s7-----7-7-----7-7-----7-7-----7-7--------------10--9-10------------|    
|---------------------------------------------------------------------|    
|---------------------------------------------------------------------| 

|--------------------------------10-----------------------------------|    
|---------------8-----------------------------------------------------|    
|--------7-9-10---10-9-7--9--10---------------------------------------|    
|-7-9-10--------------------------------------------------------------|    
|---------------------------------------------------------------------|    
|---------------------------------------------------------------------|    

|---------------------------------------------------------------------|    
|-15h17----15--17--13----13h15---12--13--15--13--12--10--12---13--10--|    
|---------------------------------------------------------------------|    
|---------------------------------------------------------------------|    
|---------------------------------------------------------------------|    
|---------------------------------------------------------------------|    

|-------12-17p12------------------------------------------------------|    
|----13----------13----12----12-13----12-15-13-12---------------------|    
|-14----------------14----14-------14-------------14-12-10------------|    
|---------------------------------------------------------------------|    
|---------------------------------------------------------------------|    
|---------------------------------------------------------------------|    

|-13--12h13p12-10--------------------------------12-13-15-------------|    
|-----------------13-12-----12----------12-13-15----------------------|    
|------------------------------14-12-14-------------------------------|    
|---------------------------------------------------------------------|    
|---------------------------------------------------------------------|    
|---------------------------------------------------------------------|    

|--------15--13h15p13-12--------12----------------------15------------|    
|-12---------------------15--------13-12-13-10-13-12-13---13-12-13----|    
|---------------------------------------------------------------------|    
|---------------------------------------------------------------------|    
|---------------------------------------------------------------------|    
|---------------------------------------------------------------------|    

|-16------------17----------------------------------------------------|    
|----13-12-13-----------13--12h13p12-10-------------------------------|    
|---------------------------------------12-13----13-14-16--16--14-----|    
|-----------------------------------------------------------^---------|    
|---------------------------------------------------------------------|    
|---------------------------------------------------------------------|    

|-------12-17p12------------------------------------------------------|    
|----13----------13----12----12-13----12-15-13-12---------------------|    
|-14----------------14----14-------14-------------14-12-10------------|    
|---------------------------------------------------------------------|    
|---------------------------------------------------------------------|    
|---------------------------------------------------------------------|    

|-13---12h13p12-10------13-12-10--------------------------------------|    
|------------------13------------13-12-10-----------------------------|    
|-----------------------------------------12-10-----------------------|    
|-----------------------------------------------14-12-10--------------|    
|--------------------------------------------------------14-----------|    
|---------------------------------------------------------------------|  

|-------------------------------10-12--------15---13h15p13-12---------|    
|----------------------10-12-13---------12--------------------15------|    
|----------------10-12------------------------------------------------|    
|-------10-12-14------------------------------------------------------|    
|-12-14---------------------------------------------------------------|    
|---------------------------------------------------------------------|

|-12----------------------15----------16-----------17-----------------|    
|----13-12-13-10-13-12-13----13-12-13----13-12-13---------------------|    
|---------------------------------------------------------------------|    
|---------------------------------------------------------------------|    
|---------------------------------------------------------------------|    
|---------------------------------------------------------------------|      

|--20--19h20p19-17----16----16-17-19-19-17-----17---------------------|    
|------------------20-----------------^--------20---------------------|    
|-----------------------------------------------^---------------------|    
|---------------------------------------------------------------------|    
|---------------------------------------------------------------------|    
|---------------------------------------------------------------------| 

That's all I know.
Comments