Student Rick - Monday Morning Chords & Tabs

 

Monday Morning Chords & Tabs

Student Rick Chords & Tabs

Version: 1 Type: Tab 0 ratings
1 star 2 stars 3 stars 4 stars 5 stars
comments

Monday Morning Tab

Student Rick-Monday morning

Intro guitar 1
|-7----0-0--------------|-5/7--------------------------------------|
|---0-4-4-4-2-4-2-0-2-0-|------------------------------------------|
|-----------------------|--connect that with the first one after 5-|
|-----------------------|------------------------------------------|
|-----------------------|------------------------------------------|
|---7-X-----------------|------------------------------------------|

intro guitar 2  ^
|-start on 3rd--|---start on 5th-|--then--------------------------------|
|--------------------------------|--------------------------------------|
|----------------------2--2------|-----------------------------888-8----|
|-2-----------------2--4--2------|-7------------7-5-33-333-333-888-8----|
|-2-----------------2--2--0------|-7-~let ring--7-5-33-333-333-666-6----|
|-0-----------------0------------|-5------------5-3-11-111-111----------|

|-----------------------------------------------------------------------|
|-----------------------------------------------------------------------|
|-77-777-7--------------------------------------------------------------|
|-77-777-7--777-77-5------repeat the "then" part twice------------------|
|-55-555-5--777-77-5----------------------------------------------------|
|-----------555-55-3----------------------------------------------------|
[ Tab from: http://www.guitartabs.cc/tabs/s/student_rick/monday_morning_tab.html ]
pre-chorus
|----------0--------------------0----------------------------------------|
|----0---------0----0------0---------------------------------------------|
|---------------------------------2222222244444444-----------------------|
|--4-----6---2----2------4----6---2222222244444444-----------------------|
|-2-----4---0----0------2----4----0000000022222222-----------------------|
|------------------------------------------------------------------------|

chorus guitar 1
|---------------------------------------------------------------------|
|-99/77/99/5-repeat 4x------------------------------------------------|
|---------------------------------------------------------------------|
|---------------------------------------------------------------------|
|---------------------------------------------------------------------|
|---------------------------------------------------------------------|

chorus guitar 2
|---------------------------------------------------------------------|
|---------------------------------------------------------------------|
|--4446662222----4446666-------------2-2----44466662222----666-2------|
|224446662222--224446666-------------2-2--2244466662222-222666-2~ring-|
|222224440000--222224444(quick pause)0-0--2222244440000-222444-0------|
|00------------00-------------------------00------------000-----------|

repeat intro and verse, then the chorus, then to the solo

|-12/11-------9-7--12/11--------9-7-4545454--12\11-------97--0------9-7-|
|-------12/10------------12/10---------------------12/10-----5/77/99----|
|-----------------------------------------------------------------------|
|-----------------------------------------------------------------------|
|-----------------------------------------------------------------------|
|-----------------------------------------------------------------------|

listen 2 song to figure out timing n orders n stuff
Comments