Student Rick - Meet You Half Way There Chords & Tabs

 

Meet You Half Way There Chords & Tabs

Student Rick Chords & Tabs

Version: 1 Type: Tab 0 ratings
1 star 2 stars 3 stars 4 stars 5 stars
comments

Meet You Half Way There Tab

this song is the same thing over and over but its so pretty
[ Tab from: http://www.guitartabs.cc/tabs/s/student_rick/meet_you_half_way_there_tab.html ]
E----------------------------------------------------------------
B----------------------------------------------------------------
G------7-------7-------0-------0-------7-------7-----------------
D----4---4---4---4---4---4---2---2---0---0---0---0---------------
A--5-------5-------0-------0-------------------------------------
E----------------------------------7-------7---------------------

E----------------------------------------------------------------
B----------------------------------------------------------------
G------0-------0-------4-------4-------6-------6-----------------
D----4---4---2---2---0---0---0---0---0---0---0---0---------------
A--0-------0-----------------------------------------------------
E------------------3-------3-------5-------5----------------------

 its that over and over again
Comments