Stuck Mojo - Southern Pride Chords & Tabs

 

Southern Pride Chords & Tabs

Stuck Mojo Chords & Tabs

Version: 2 Type: Tab 0 ratings
1 star 2 stars 3 stars 4 stars 5 stars
comments

Southern Pride Tab

   
Stuck Mojo - Southern Pride

h - hammer on 
p - pull off 
b - bend string up 
r - release bend 
/ - slide up 
\ - slide down 
v - vibrato (sometimes written as ~) 
t - tap (with strumming hand) 
x - muted, struck string 

Tuning: Down a whole step then drop C. C G C F a D 


Riff 1 Intro/Chorus 
D|----------------------------|--------------------|------------------| 
A|----------------------------|--------------------|------------------| 
F|----------------------------|--------------------|------------------| 
C|----------------------------|--------------------|------------------| 
G|--2--4--7p4-7p4-7p4-7p4-7p4-|--2--4--7p4-7p4-7p4-|---7p4------------| 
C|--2--4--7p4-7p4-7p4-7p4-7p4-|--2--4--7p4-7p4-7p4-|---7p4------------| 
"I've got that Southern Pride..." 


Riff 2 
D|--------------------------------------------------------------------| 
A|--------------------------------------------------------------------| 
F|--------------------------------------------------------------------| 
C|--------------------------------------------------------------------| 
G|--7p4-4-4--7p4-4-4--7p4-4--7p4-4-4--7p4-----------------------------| 
C|--7p4-4-4--7p4-4-4--7p4-4--7p4-4-4--7p4-----------------------------| 

[ Tab from: http://www.guitartabs.cc/tabs/s/stuck_mojo/southern_pride_tab_ver_2.html ]
Riff 3a 
D|--------------------------------------|-----------------------------| 
A|--------------------------------------|-----------------------------| 
F|--------------------------------------|-----------------------------| 
C|--2-----2--4--2-----2-----2--4--5--4--|-----------------------------| 
G|--0--4--0--2--0--4--0--4--0--2--3--2--|-----------------------------| 
C|-----4-----------4-----4--------------|-----------------------------| 
"South of the Mason-Dixon..." 

Riff 3b 
D|-------------------------------------------------|------------------| 
A|-------------------------------------------------|------------------| 
F|--------------------------------2----------------|------------------| 
C|--2-----2--4--2-----2-----2--------4--2----------|------------------| 
G|--0--4--0--2--0--4--0--4--0--4-----------4--3--2-|------------------| 
C|-----4-----------4-----4-----4-------------------|------------------| 
Verse cont. 

Riff 3c 
D|---------------------------------------------------|----------------| 
A|---------------------------------------------------|----------------| 
F|----------------------------------------------2----|----------------| 
C|--2-----2--4--2-----2-----2-----2h4p2h4p2--------4-|----------------| 
G|--0--4--0--2--0--4--0--4--0--4-------------4-------|----------------| 
C|-----4-----------4-----4-----4---------------------|----------------| 
Verse cont. 


Riff 4 
D|--------------|------| |--------------|------| 
A|--------------|------| |--------------|------| 
F|--------------|------| |--------------|------| 
C|--------4-----|------| OR |-----2--4-----|------| 
G|--4--7--2--2--|--4---| |--4--0--2--2--|--4---| 
C|--4--7-----2--|--4---| |--4--------2--|--4---| 
"I'm not ashamed of it..." ^ 
Add on the 3rd time. 

Order: (Best to listen to CD) 
Riff 1 
Riff 2----- 2x 
Riff 3a---- 1x 
Riff 3b---- 1x 
Riff 3a---- 1x 
Riff 3c---- 1x 
Riff 1----- 
Riff 2----- 2x 
Riff 3a---- 1x 
Riff 3b---- 1x 
Riff 3a---- 1x 
Riff 3c---- 1x 
Riff 1----- 
Riff 4----- 3x 
Bass Break (No Guitar) 
Guitar Slides in 
Riff 1----- 
Riff 4----- 3x 

 
The Mojo Lives On!!!!
Comments