Stuck Mojo - Shout At The Devil Chords & Tabs

 

Shout At The Devil Chords & Tabs

Stuck Mojo Chords & Tabs

Version: 1 Type: Tab 0 ratings
1 star 2 stars 3 stars 4 stars 5 stars
comments

Shout At The Devil Tab

   
Artist: Stuck mojo
Song: Shout at the devil
Album: Violate this "10 years of rarities: 1991 - 2001"

Shout at the devil (cover from stuck mojo)
Original played by "Motley crue and sixx"

Drob down by "C" tuning - C, G, D#, A#, F#, C
h - hammer on
p - pull off
/ - slide
[ Tab from: http://www.guitartabs.cc/tabs/s/stuck_mojo/shout_at_the_devil_tab.html ]
Intro (2x)
 |-------------------------------|
 |-------------------------------|
 |-------------------------------|
 |------------3-------------5----|
 |--15/5-5----3---15/5-5----5----|
 |--15/5-5--0-----15/5-5--0------|
       * *  *        * *  *
This part (2x)Guitar 1       Guitar 2 (2x)
 |------------------------|--------------|
 |------------------------|--------------|
 |-------3------5------3--|---------5-3--|
 |-------3------5------3--|------3p------|
 |--5-5--3-5-5--5-5-5--3--|--3h5---------|
 |--5-5----5-5----5-5-----|--------------|
    * *    * *    * *
After intro this Guitar 1          Guitar 2 
 |------------------------------|--------------|
 |------11^-----10^----8^-------|--------------|
 |------------------------------|---------5-3--|
 |------------------------------|------3p------|
 |--5-5-----5-5----5-5----------|--3h5---------|
 |--5-5-----5-5----5-5----------|--------------|
    * *     * *    * *
 |------------------------------|--------------|
 |------11^-----13^-----8^------|--------------|
 |------------------------------|---------5-3--|
 |------------------------------|------3p------|
 |--5-5-----5-5-----5-5---------|--3h5---------|
 |--5-5-----5-5-----5-5---------|--------------|
    * *     * *     * *
Verse
 |-----------------------------------------------------------------------|
 |-----------------------------------------------------------------------|
 |-----------------------------------------------------------------------|
 |--5-3--------3--5-3-------5-3--------3--5-3-3-3-3--5-3--------3--5-3---|
 |--5-3-5-5--5-3--5-3--5----5-3-5-5--5-3--5-3-3-3-3--5-3-5-5--5-3--5-3-5-|
 |------5-5--5---------5--------5-5--5--------* * *------5-5--5--------5-|
        * *  *                  * *  *                   * *  *
 |------------------------------|
 |------------------------------|
 |------------------------------|
 |--5-3--------3-3-3---2-2-1-1--|
 |--5-3-5-5--5-3-3-3---2-2-1-1--|
 |------5-5--5---*-----* * * *--|
        * *  *
Chorus Guitar 1 (2x)              Guitar 2 (2x)
 |--------------------------------|--------------|
 |--------------------------------|--------------|
 |--------------------------------|---------5-3--|
 |-------0-3-------0-5-------0-3--|------3p------|
 |--5-5--0-3--5-5--0-5--5-5--0-3--|--3h5---------|
 |--5-5-------5-5-------5-5-------|--------------|
    * *       * *       * *
then Verse
     Chorus
Solo intro (I'm not soure about this)
 |---------------------------------------------------------------------------|
 |------11^-----10^-----8 ^---8p8p8p8p8p8p8p8p10p10p10p10p10p10p8p8p8p8p8p8p-|
 |------14^-----13^-----11^--------------------------------------------------|
 |---------------------------------------------------------------------------|
 |--5-5-----5-5-----5-5------------------------------------------------------|
 |--5-5-----5-5-----5-5------------------------------------------------------|

 |--------------------------------------|
 |--11^-----11^-----13^-----8 ^---------|
 |----------14^-----16^-----11^---------|
 |-------------------------------0-3/5--|
 |------5-5-----5-5-----5-5------0-3/5--|
 |------5-5-----5-5-----5-5------*------|

then verse
     chorus
 |-------------------------------------------------------------|
 |-------------------------------------------------------------|
 |-------------------------------------------------------------|
 |-------------------------------------------------------------|
 |--5-5--5-5--5-5---5-5--5-5--5-5------------------------------|
 |--5-5--5-5--5-5---5-5--5-5--5-5--3h5--5-5--3h5--5-5--3-3-5-5-|
    * *  * *  * *   * *  * *  * *
Then Corus

 Outro 4x                         4x
 |------------------|---------------|
 |------------------|---------------|
 |------------------|---------------|
 |--------------3/5-|----------3/5--|
 |--5--5-5--5-5-3/5-|--5-5-5-5-3/5--|
 |--5--5-5--5-5-----|--5-5-5-5------|
    *  * *  * *        * * * *
Comments