Stuck Mojo - Pipebomb Chords & Tabs

 

Pipebomb Chords & Tabs

Stuck Mojo Chords & Tabs

Version: 1 Type: Tab 0 ratings
1 star 2 stars 3 stars 4 stars 5 stars
comments

Pipebomb Tab

   
/---------------------------------------------------------------------------
/ The following is the author's own interpretation of the song, to be used -
/ for studying or private use only, removal of any part of this ten line   -
/ header is illegal!!!  Removal of the transcribers name or anything       -
/ relevant to the transcriber is also illegal, as so is the removal of the -
/ place inwhich the tab was downloaded. Publishing as well as printing of  -
/ the tab is illegal without permission of the transcriber and copyright   -
/ owner of the song. Failure to apply to these laws result will in legal   -
/ action from the appropriate parties.                                     -
/---------------------------------------------------------------------------

downloaded from Displacer's Tablature Site at
        http://www.dsrmusic.com/metaltab
join the death/black tab emailing list by filling out the free
subscription form at http://www.dsrmusic.com/metaltab/join.htm

        Stuck Mojo - Pipebomb
        From the album: Rising

Tabulature by Leethal
Send questions/comments/smart ass remarks to: MLeethal@aol.com
Ask about other great metal songs I will tab!

 / = slide up             p = pull off          ~ = vibrato
 \ = slide down           h = hammer on         . = palm mute
 b = bending

 Tune guitar to Bb

 Riff A
 |---------------------------------------------------------------|
 |---------------------------------------------------------------|
 |-10-----------10------------10-------------10b-----------------|
 |-10-----------10------------10-----------------12-10----10h12~-|
 |-8------------8-------------8------------------------12--------|
 |----0-0--0---0----0-0--0---0----0-0--0---0---------------------|
      . .  .   .    . .  .   .    . .  .   .

 |---------------------------------------------------------------|
 |---------------------------------------------------------------|
 |-10-----------10------------10---------------------------------|
 |-10-----------10------------10-----------------5-6-5-----------| repeat
 |-8------------8-------------8--------------5-8-------8-5-------|
 |----0-0--0---0----0-0--0---0----0-0--0---0---------------------|
      . .  .   .    . .  .   .    . .  .   .

 Riff B (Main Riff)
 |------------------------------------------------------------------|
 |------------------------------------------------------------------|
 |-7\6-6-6-7\6-6-6-7\6-6-6-7\6-6-6-7\6-6-6-7\6-6-6------------------|
 |-7\6-6-6-7\6-6-6-7\6-6-6-7\6-6-6-7\6-6-6-7\6-6-6------------------|
 |-5\4-4-4-5\4-4-4-5\4-4-4-5\4-4-4-5\4-4-4-5\4-4-4------------------|
 |---------------------------------------------------0-0-0-0-0-0-0--|
                                                     . . . . . . .
 play Riff B 4 times then
 |---------------------------------------------------------------|
 |---------------------------------------------------------------|
 |-7---------8---------9---------10------------------------------|
 |-7---------8---------9---------10---0--3--5--5/6-5-------------|
 |-5---------6---------7---------8----0--3--5--5/6-5-------------|
 |---0-0-0-0---0-0-0-0---0-0-0-0------0--3--5--5/6-5-------------|
     . . . .   . . . .   . . . .
[ Tab from: http://www.guitartabs.cc/tabs/s/stuck_mojo/pipebomb_tab.html ]
  Riff C (pre-chorus)
 |---------------------------------------------------------------|
 |---------------------------------------------------------------|
 |-7---------8---------9---------10---7---5----------------------|
 |-7---------8---------9---------10---7---5---6-5-3-0------------|
 |-5---------6---------7---------8----5---3---6-5-3-0------------|
 |---0-0-0-0---0-0-0-0---0-0-0-0--------------6-5-3-0------------|
     . . . .   . . . .   . . . .

 |---------------------------------------------------------------|
 |---------------------------------------------------------------|
 |-7---------8---------9---------10------------------------------|
 |-7---------8---------9---------10---0--3--5--5/6-5-------------|
 |-5---------6---------7---------8----0--3--5--5/6-5-------------|
 |---0-0-0-0---0-0-0-0---0-0-0-0------0--3--5--5/6-5-------------|
     . . . .   . . . .   . . . .

 |---------------------------------------------------------------|
 |---------------------------------------------------------------|
 |-7---------8---------9---------10---------5/7---5/7---5/7------|
 |-7---------8---------9---------10---------5/7---5/7---5/7------|
 |-5---------6---------7---------8----------3/5---3/5---3/5------|
 |---0-0-0-0---0-0-0-0---0-0-0-0------12\-------0-----0----------|
     . . . .   . . . .   . . . .                .     .
 
 Chorus
 |---------------------------------------------------------------|
 |---------------------------------------------------------------|
 |-5-7\----------------------------------------------------------|
 |-5-7\---7\6--6-6-6\5--3-3---3-------5h3-----5h3---0------------|
 |-3-5\---7\6--6-6-6\5--3-3-------5b--5h3-----5h3---0------------|
 |--------7\6--6-6-6\5--3-3-----------5h3-0-0-5h3-0-0------------|
                                          . .     .

 play chorus 4 times then repeat from Riff A
 After chorus the second time, go straight into bridge....
 |---------------------------------------------------------------|
 |---------------------------------------------------------------|
 |---------------------------------------------------------------|
 |-5h3-----5h3-----5h3-----5h3-----5h3-----5h3------0-0--0--0--0-|
 |-5h3-----5h3-----5h3-----5h3-----5h3-----5h3------0-0--0--0--0-|
 |-5h3-0-0-5h3-0-0-5h3-0-0-5h3-0-0-5h3-0-0-5h3-0-0--0-0--0--0--0-|
       . .     . .     . .     . .     . .     . .  . .  .  .  .

 play 4 times then
 |--------------------------------------||------------------------------------|
 |--------------------------------------||------------------------------------|
 |-7----7-------------------------------||-7----7-----------------------------|
 |-7----5----0-3-5-6-5-3-0---0--3h5--3--||-7----5----0-3-5-6-5-3-0---0-5/6-6--|
 |-5----3----0-3-5-6-5-3-0---0--3h5--3--||-5----3----0-3-5-6-5-3-0---0-5/6-6--|
 |-----------0-3-5-6-5-3-0---0--3h5--3--||-----------0-3-5-6-5-3-0---0-5/6-6--|
    (Classic Mojo!)
 repeat this riff once then
 |--------------------------------------|
 |--------------------------------------|
 |--------------------------------------| play 4 times then repeat 
 |-0-3-5-6-5-3-0-0-3-0-0-3-0-0-3-3------| from pre-chorus riff to chorus;
 |-0-3-5-6-5-3-0-0-3-0-0-3-0-0-3-3------| after chorus skip to Riff A to end.
 |-0-3-5-6-5-3-0-0-3-0-0-3-0-0-3-3------|
   . . . . . . . . . . . . . . . .


WWW.SickSpeed.Net
Comments