Stuck Mojo - Enemy Territory Chords & Tabs

 

Enemy Territory Chords & Tabs

Stuck Mojo Chords & Tabs

Version: 1 Type: Tab 0 ratings
1 star 2 stars 3 stars 4 stars 5 stars
comments

Enemy Territory Tab

   
/---------------------------------------------------------------------------
/ The following is the author's own interpretation of the song, to be used -
/ for studying or private use only, removal of any part of this ten line   -
/ header is illegal!!!  Removal of the transcribers name or anything       -
/ relevant to the transcriber is also illegal, as so is the removal of the -
/ place inwhich the tab was downloaded. Publishing as well as printing of  -
/ the tab is illegal without permission of the transcriber and copyright   -
/ owner of the song. Failure to apply to these laws result will in legal   -
/ action from the appropriate parties.                                     -
/---------------------------------------------------------------------------

        Stuck Mojo - Enemy Territory
      

 / = slide up             p = pull off          b = bending
 \ = slide down           h = hammer on         . = palm mute
 * = nat. harmonic        ()= ghost note         = rake harmonics

 Tune guitar to Drop D

                                  
 |-----------|
 |-----------|
 |-----------|
 |--0-0-0-0--|
 |--0-0-0-0--|
 |--0-0-0-0--|
    . . . .              
                                
 Riff A                         
 |------------------------------3----------------|
 |------------------------------3----------------|
 |------------------------------3----------------| Repeat
 |--0-0-0-0-0-0-0-0-3-3-3-3-----3----------------| 7 times
 |--0-0-0-0-0-0-0-0-3-3-3-3-0---3----------------|
 |--0-0-0-0-0-0-0-0-3-3-3-3-0---3----------------|
    . . . . . . . . . . . . .       

 |---------------|
 |---------------|
 |---------------|
 |--0-0-0-0------|
 |--0-0-0-0------|
 |--0-0-0-0-15\--|
    . . . .
[ Tab from: http://www.guitartabs.cc/tabs/s/stuck_mojo/enemy_territory_tab.html ]
 Riff B
 |----------------------------------------------------|
 |----------------------------------------------------|
 |----------------------------------------------------|
 |--2---5---2---5---2---5---2---5---------------------|
 |--2---5---2---5---2---5---2---5---0-0-0-0-1-1-1-1---|
 |--2---5---2---5---2---5---2---5---0-0-0-0-1-1-1-1---|
                                    . . . . . . . .

 |----------------------------------------------------|
 |----------------------------------------------------|
 |----------------------------------------------------|
 |--2---5---2---5---2---5---2---5---4-4-4-4-3-3-3-3---|
 |--2---5---2---5---2---5---2---5---2-2-2-2-1-1-1-1---|
 |--2---5---2---5---2---5---2---5---------------------|
                                    . . . . . . . .
 Repeat Riff B

 Riff C (pre-chorus)
 |---------------------------------------------------------|
 |---------------------------------------------------------|
 |---------------------------------------------------------|
 |-----------7---7---7---7---7---7---7-------3-------------|
 |-----------5---5---5---5---5---5---5---3h5---5-----------|
 |--0-0-0-0----0---0---0---0---0---0-------------3b--------|
    . . . .    .   .   .   .   .   .

 |----------------------------------------------------------|
 |----------------------------------------------------------|
 |-------------------------------7--6--5--------------------|
 |-----------7---7---7---7-------7--6--5-----7--6--5--------|
 |-----------5---5---5---5-------5--4--3-----7--6--5--------|
 |--0-0-0-0----0---0---0---00-0----------00--7--6--5--------|
    . . . .    .   .   .   .. .          ..

 Repeat Riff C
 Riff A
 Riff B
 Riff C
 Riff A

 Bridge
 |----------------------------------------------------(0)------(0)-----|
 |-----------------------------------------------------6--------6------|
 |------------7------------12----12------------7-----------------------|
 |------------5------------10----10------------5-----------------------|
 |--000--000--3--000--000--8-----7---000--000--3--000------0-0-----0-0-|
 |--000--000-----000--000------------000--000-----000------0-0-----0-0-|
    ...  ...     ...  ...            ...  ...     ...      . .     . .

 Repeat Bridge 3 more times
 Riff C
 Riff A
 

The Mojo Lives On!!!!!!!
Comments