Stu Hamm - Moonlight Sonata Chords & Tabs

 

Moonlight Sonata Chords & Tabs

Stu Hamm Chords & Tabs

Version: 3 Type: Bass Tab

Moonlight Sonata Bass Tab

-------------------------------------------------------------------------------
			    Moonlight Sonata - Stu Hamm
-------------------------------------------------------------------------------

Tabbed By : Logan aka pink chili
e-mail: lpeters20@hotmail.com

Tuning: EADG


G||-----6h-9-----6h-9-----6h-9-----6h-9--|
D||--6t-------6--------6--------6--------|
A||--------------------------------------|
E||--9t----------------------------------|


                                                                               
 
-----6h-9-----6h-9-----6h-9-----6h-9--|-----6h-9-----6h-9-----7h-11-----7h-11--
--6t-------6--------6--------6--------|--7--------7--------7---------7---------
--------------------------------------|----------------------------------------
--7t----------------------------------|--5-----------------2-------------------
|


                                        
-----5--11-----6h-9-----6h-8-----5--8--|
--6---------6--------6-----------------|
------------------------------9--------|
--4------------------4-----------------|


                                           
--------6-----6h-9-----6h-9--13------9-13-|
-----6-----6--------6------------11-------|
--7---------------------------------------|
--9--------------------------16-----------|


                                                     
--13------11----------11----------11--13------11-13-|
------13----------13----------13----------13--------|
--------------11----------11------------------------|
--8-----------------------------------16------------|


                                                 
--13------9----------9--14------11----------11--|
------11---------11---------11----------11------|
-------------11---------------------12----------|
--9---------------------2-----------------------|


                                            
--13-----9-----4--9--11-----8--16----------|
------9-----6------------9-------------13--|
-----------------------------------14------|
--7------------------2---------------------|


                                       
--9--4--9-----4--9-----4--9-----4--9--|
-----------6--------6--------6--------|
--------------------------------------|
--4-----------------------------------|


                                          
-----4--9-----4--9-----4--9--12-----9-12-|
--5--------5--------5------------9-------|
--7--------------------------10----------|
-----------------------------------------|


                                                 
--12-----10---------10---------10--12-----10-12-|
------9----------9----------9----------9--------|
-------------10---------10---------10-----------|
--10--------------------------------------------|


                                             
--12------9-----4--9-----6--9--11------9-11-|
------10-----5--------5------------11-------|
-------------------------------9------------|
--8----------7--------6---------------------|


                                             
--11-------------------12---------9---------|
------9--12-----9--12------9--11-----9--11--|
-------------9---------7--------------------|
--7-------------------------------3---------|


                                         
--11-----7--------7--11-----6--------6--|
------9--------9---------8--------8-----|
------------9------------------9--------|
--2------------------2------------------|


                                             
-----7--11-----7--11-----8--11--16------11--|
--9---------9---------9-------------13------|
--2-----------------------------14----------|
--------------------------------------------|


                                                   
--17------12----------12----------12--15------12--|
------14------9---14------9---14----------14------|
--------------------------------------------------|
--12----------15----------12----------7-----------|


                                                 
--16------11---------11---------11--16------11--|
------13------9--13------9--13----------13------|
------------------------------------14----------|
--7---------------------------------------------|


                                                   
--17------12----------12----------12--15------12--|
------14------9---14------9---14----------14------|
--------------------------------------------------|
--12----------15----------12----------7-----------|


                                                   
--16------11----------11--16------10----------10--|
------13----------13----------12----------12------|
--------------14----------------------14----------|
--7-----------------------4-----------------------|


                                                   
--16------13----------13--14------11----------11--|
------11----------11----------11----------11------|
--------------14----------------------12----------|
--13----------------------2-----------------------|


                                          
--12-----7--10-----7--11-----8--------8--|
------9---------9---------7--------7-----|
--------------------------------9--------|
--7-------------------8------------------|


                                       
--6-----------------6--------6--------|
-----4--7-----4--7-----4--6-----3--6--|
-----------4-----------------4--------|
--2-----------------2-----------------|


                                                
--------6-----6--11------11--14--18------14-18-|
--4--7-----7---------11--------------16--------|
---------------------------------16------------|
--2--------------------------------------------|


                                                     
--18------16----------16----------16--18------16-18-|
------18----------18----------18----------18--------|
--------------16----------16----------16------------|
--13------------------------------------------------|


                                                   
--18------14----------14--17------14--18------14--|
------16----------16----------16----------16------|
--------------16----------------------------------|
--14----------------------11----------9-----------|


                                                   
--20----------------------------------20----------|
------16--18------16--18------16--18------16--18--|
--------------18----------18----------------------|
--8-----------------------------------4-----------|


                                                   
--21------18----------18--20----------18------15--|
------18------14--18----------16--19------14------|
--------------------------------------------------|
--9-----------------------2-----------3-----------|


                                                   
--17----------------------------------------------|
--------------18----------19----------16----------|
------15--18------15--18------15--18------15--18--|
--4-----------------------------------------------|


                                       
--------------------------------------|
-----------6--------7-----------------|
--------6--------6--------6--9-----6--|
--4--8--------8--------8--------8-----|


                                                  
---------13--18----------21----------18----------|
-----14----------14--18----------18----------18--|
--7--------------------------19----------19------|
--4----------------------------------------------|


                                       
-----------6--------9--------6--------|
--------6--------6--------6--------6--|
-----7--------7--------7--------7-----|
--4-----------------------------------|


                                            
-----------5-----8--5--11------14--11--17--|
-----7--4-----7------------13--------------|
--6----------------------------------------|
--4----------------------------------------|


                                              
-----6-----9--6--13------18------21--18------|
--------6------------14------18----------18--|
--7------------------------------------------|
--4------------------------------------------|


                                         
-----------------6-----9--6--12--9--15--|
-----5-----8--5-----8-------------------|
--4-----7-------------------------------|
--2-------------------------------------|

[ Tab from: http://www.guitartabs.cc/tabs/s/stu_hamm/moonlight_sonata_btab_ver_3.html ]
                                                  
-----------------------------14------17--14--20--|
-------------13------16--13------16--------------|
--9--15--12------15------------------------------|
--2----------------------------------------------|


                                             
--17------14------11------8-----5-----------|
------16------13------10-----7-----4--7-----|
-----------------------------------------6--|
--------------------------------------------|


                                                                               
 
--11------8-----5-----------------------|-----------2--------------2--------2--
------10-----7-----4--7-----4-----4--7--|-----4--6-----6--4-----4--------4-----
-------------------------6-----4--------|--3-----------------6--------4--------
----------------------------------------|--4-----------------------------------


                                                                              
--------------------------------------|--------------------------6--------6--|
-----4--6--7--6--4-----4--7-----4--7--|-----4--6--7--6--4-----2--------2-----|
--3-----------------5--------4--------|--3-----------------4--------4--------|
--4-----------------------------------|--4-----------------5-----------------|


                                       
--------6--------6--------5--------5--|
-----7--------7--------6--------4-----|
--6--------6--------6--------6--------|
--2-----------------4-----------------|


                                           
--------6-----6--9-----6--9--13------9-13-|
-----6-----6--------6------------11-------|
--7--------------------------11-----------|
--4---------------------------------------|


                                                     
--13------11----------11----------11--13------11-13-|
------13----------13----------13----------13--------|
--------------11----------11----------11------------|
--8-------------------------------------------------|


                                                 
--13------9----------9--14------11----------11--|
------11---------11---------11----------11------|
-------------11---------------------12----------|
--9---------------------2-----------------------|


                                            
--13-----9--------9--11-----8--16----------|
------9-----6--9---------9-----7-------13--|
-----------------------------------14------|
--7------------------7---------------------|


                                              
--9-----9-----9--13-----9--13--16------13-16-|
-----9-----9---------9-------------14--------|
--7----------------------------14------------|
---------------------------------------------|


                                                     
--16------14----------14----------14--16------14-16-|
------16----------16----------16----------16--------|
--------------14----------14----------14------------|
--11------------------------------------------------|


                                                  
--16------13---------13--17------13--18------13--|
------14------9--14----------16----------14------|
--7----------------------------------------------|
-------------------------11----------9-----------|


                                                   
--20----------------------21------18----------18--|
------16--18--13--16--18------18------14--18------|
--3-----------------------------------------------|
--------------------------9-----------------------|


                                                   
--19----------------------17----------------------|
------16--19------16--19------16--18------16--18--|
--------------17----------------------15----------|
--2-----------------------4-----------------------|


                                                   
--18----------------------------------18----------|
------14--18------14--18------15--18------15--18--|
--------------16----------16----------16----------|
--9-----------------------------------------------|


                                                   
--19----------------------------------17----------|
------16--19------16--19------16--19------16--19--|
--------------16----------16----------9-----------|
--14----------2-----------5-----------------------|


                                                   
--18----------------------------------18----------|
------15--18------15--18------15--18------15--18--|
--------------16----------16----------16----------|
--9-----------------------------------------------|


                                                   
--19----------------------------------17----------|
------16--19------16--19------16--19------16--19--|
--------------16----------16----------9-----------|
--14----------2-----------5-----------------------|


                                                   
--18----------------------18----------------------|
------15--18------15--18------16--19--11--16--19--|
--------------16----------------------16----------|
--9-----------------------2-----------------------|


                                                   
--16----------------------------------16----------|
------16--19------16--19------16--19------14--18--|
--------------14----------14----------7-----------|
--11----------------------------------------------|


                                                   
--14----------14----------13----------13----------|
------14--18------13--16------13--16------11--14--|
--------------------------------------------------|
--9-----------11----------8-----------9-----------|


                                                  
--11---------------------13----------14----------|
------11--13-----11--13------11--13------11--13--|
--------------9----------------------------------|
--5----------------------4-----------2-----------|


                                                  
--13----------------------13---------------------|
------11--14------11--14------10--13-----10--13--|
--------------11----------------------9----------|
--4-----------------------4----------------------|


                                       
--6-----6-----6--9-----6--9-----6--9--|
-----6-----6--------6--------6--------|
--------------------------------------|
--4--------------------------4--------|


                                                   
----------11----------11----------11----------11--|
------13----------13----------13----------13------|
--11----------11----------11----------11----------|
--4-----------------------------------4-----------|


                                                   
--------------13------18------21--18--24b-21--18--|
------14--11------14------18----------------------|
--11----------------------------------------------|
--4-----------------------------------4-----------|


                                                
--17--20------17------14------11------5--------|
----------19------16------13-------------6--4--|
----------------------------------12-----------|
--4-----------------------------------4--------|


                                                   
--------------13------18------21--18--24b-21--18--|
------14--11------14------18----------------------|
--11----------------------------------------------|
--4-----------------------------------4-----------|


                                                
--17--20------17------14------11------5--------|
----------19------16------13-------------6--4--|
----------------------------------12-----------|
--4-----------------------------------4--------|


                                                                              
--6-----6--9--6--------------6--------|--------------------------------------|
-----6-----------6--------6-----6-----|--------2--6--2-----------------------|
--7-----------------4--7-----------7--|-----4-----------4-----4--------------|
--------------------------------------|--4-----------------4-----4--0--4--0--|


                                                             
--------------------|--6----------------|------------------||
--------------------|-------------------|------------------||
--4--------4--------|--4----------------|------------------||
--4--------4--------|-------------------|------------------||