Stu Hamm - Moonlight Sonata Chords & Tabs

 

Moonlight Sonata Chords & Tabs

Stu Hamm Chords & Tabs

Version: 1 Type: Bass Tab 0 ratings
1 star 2 stars 3 stars 4 stars 5 stars
comments

Moonlight Sonata Bass Tab

Song:	Moonlight Sonata
Artist:	Stuart Hamm
Album:	Taken from a live bass solo
Tabbed By: Tony E. (intensity5@comcast.net)[Maryland]

I was bored.

~       Let Ring 
(#)     Tap w/ fret hand

||-------(9)|-------(9)|-------(9)|-------(9)|------(9)|-------(9)|
||----11----|----11----|----11----|----11----|----11---|----11----|
||-11-------|-11-------|-11-------|-11-------|-11------|-11-------|
||----------|----------|----------|----------|(7)~~~~~~|~~~~~~~~~~|

[ Tab from: http://www.guitartabs.cc/tabs/s/stu_hamm/moonlight_sonata_btab.html ]
||------(9)-|-------(9)|---(6)-9--|---(6)-9--|------11-|-------11-|
||----11----|----11----|----------|----------|----11---|----11----|
||-11-------|-11-------|-11-------|-11-------|11-------|-11-------|
||~~~~~~~~~~|~~~~~~~~~~|(5)~~~~~~~|~~~~~~~~~~|(2)~~~~~~|~~~~~~~~~~|


||---(6)-11-|---(6)-9--|---(6)-9--|---(6)-8--|-------------------||
||----------|----------|----------|----------|-------------------||
||-11-------|-11-------|-11-------|-11-------|-------------------||
||(4)~~~~~~~|~~~~~~~~~~|(4)~~~~~~~|~~~~~~~~~-|-------------------||
Comments