Stu Hamm - Engines Of Creation Chords & Tabs

 

Engines Of Creation Chords & Tabs

Stu Hamm Chords & Tabs

Version: 1 Type: Bass Tab 0 ratings
1 star 2 stars 3 stars 4 stars 5 stars
comments

Engines Of Creation Bass Tab

   
Stuart Hamm
Solo From the "Engines Of Creation" Tour 2002
Tab by: Basswizard (Metallika5@hotmail.com)

P.h: Pinched Harmonic
P: Pull Off
H: Hammer-0n
/: Slide Up
\: Slide Down
~: Let note(s) Ring (listen to it to get the timing)
*: Very lightly play the note(s)

There is no point in tabbing the rest of the solo,(moonlight sonata, 
sexually active and country music) ,its already been tabbed (www.stuarthamm.net)

Play the riffs in the order that they are listed.

Here is the Intro (Don't play the last three
notes in this riff on the third time round)

G--11-------------13--13------11--11~-------------------------
D--14--14--13-----11--11-------9---9~-------------------------
A--14--14--14-----12----------11--------11*------------------- X3
E--------------0----------0-----------------0*-0*-------------


G-----9--8---6----6--4--4----------9--8--6----6--------13------13-
D-----9--9---7---7---6--6----------9--9--7--7---------------14----
A------------0-------7-------------------0----------7/------------
E--9--------------------0--------9------------------------0-------

-----14---------16~-
--------------------
--16----16/--19-----
--------------------
if you bar the 16th fret on the D and G this bit
can be easier.
G---21--20--18~----16--16------------16--------------------
D---18------19~----18--16H18--18-18--16H18--16--14~--------
A---16-------0~---------------------------------11~--------
E-----------------------0------------------------0~--------

G--21----------20~----21--------20-------20---21-----------------21P.h
D------18-----------------19----------19----------18----18---21-----
A--16------16----------0------0-----0----------------19-------------
E----------------------------------------------0--------------------
[ Tab from: http://www.guitartabs.cc/tabs/s/stu_hamm/engines_of_creation_btab.html ]
G--9--9-8-4-6----14--------------------------------------
D--9-------------------11H12P11--9--7--6~----6---7---9~--
A--------------0----0~-----------------7~----7---7---7~--
E--9---------------------------------------0---0---0-----

--9---9-------9-----9-9--11---13---14P13-11------16------
----9----9/11-------9-9---9---11-------------14----------
-------------------------------0~------------------------
----------------9~------------------------------------0~-


--------16--------16----16--
-----14--------14-----------
----------------------------
--0--------0---------0------

G-------16----16---16------16------16-----16----
D----14-----14----------14------14--------------
A--16-----16-----16---0-------0--------0--------
E-----------------------------------------------

------16------16-----16-------16------16---16----
---14------14--------------14------14------------
-------------------------------------------------
-0-------0--------0------0-------0--------0------

G-------16----16---16------16------18----16---
D----14-----14----------14------14----14------
A--16-----16-----16---0-------0---------------
E---------------------------------------------

--------16-------18-----16-------16-----16-18--21
-----14-------14----14--------14-----------------
-------------------------------------------------
---0-------0---------------0--------0------------

---------21-------21----21-------21-------21----------
------18-------18-------------19------19--------19H21-
---16-------16------16------0-------0--------0--------
------------------------------------------------------

------21----21---21------21------21---21-------
---21-----21----------21-------21--------------
-----------------------------------------------
0-------0------0----0-------0------0-----------

--------21-------21---21------21-----21----------
-----18-------18-----------19-----19------19H21--
--16-------16------16----0------0------0---------
-------------------------------------------------

------21------21-----21----21-
----21------21-----21-----21--
------------------------------
0--------0-------0------0-----
Comments