Sts - Irgendwann Bleib I Dann Dort Chords & Tabs

 

Irgendwann Bleib I Dann Dort Chords & Tabs

Sts Chords & Tabs

Version: 3 Type: Tab 0 ratings
1 star 2 stars 3 stars 4 stars 5 stars
comments

Irgendwann Bleib I Dann Dort Tab

   
Ich hab die Version die schon hier online ist ein bisschen geändert und das solo 
Ich hoffe es gefällt euch. Bei Anregungen: ssteiwender@gmx.at
[ Tab from: http://www.guitartabs.cc/tabs/s/sts/irgendwann_bleib_i_dann_dort_tab_ver_3.html ]
   G        Am     G                | C            G  Am
E|-3---3----—------3---3-----3------|-------0------3----------0-------||
H|-0-----0--1/2-1--0-----0-----0----|-----1---1----0--1---1-----1---1-||
G|---0---------------0-----0-----0--|---0-------0--0--2-2---2-----2---||
D|----------2/3-2-------------------|---------------------------------||
A|----------------------------------|-3---------------0---------------||
E|-3---------------3----------------|--------------3------------------||
   D        Am       D        C        G        Am      G
E|-------3--------0--------3--------0--------3----------3--||
H|-----2--------1--------2--------1--------0----1/2-1---0--||
G|---3--------2--------3--------0--------0--------------0--||
D|-0-----------------0--------------------------2/3-2---0--||
A|----------0-----------------2-------------------------2--||
E|-------------------------------------3----------------3--||
                              G  Am  G                     C          G Am
Der letzte Sommer war sehr schön,    I bin in irgendeiner Bucht g'legn.
Nach zwei, drei Wochen hab i's g'spürt, I hab des Lebensg'fühl dort inhaliert.
                            G  Am  G                           C       G Am
Die Sunn wie Feuer auf der Haut,    du riechst des Wasser und nix is laut.
Die Gedanken drehn si um,     was z'haus wichtig war, is jetzt ganz dumm.
                     D          Am           D
Irgendwo in Griechenland, jede Menge weißer Sand,
Du sitzt bei am Olivenbaum und du spielst die mit an Stein,
          C              G    D C G
Auf meim Rucken nur dei Hand.
Es is so anders als daham.
Refrain:
                             C                          D
Und irgendwann bleib I dann dort, laß alles liegn und stehn,
                         G    C   G7
Geh von daham für immer fort.
                      C                            D
Darauf gib I dir mei Wort, wieviel Jahr a noch vergehn,
                         G     Am   G
Irgendwann bleib I dann dort.

                       G   Am G                       C            G Am
In unserer Hektomatik-Welt,    dreht si alles nur um Macht und Geld.
                               G  Am G                         C
Finanz und Banken steign mir drauf,    die Rechnung, die geht sowieso nie
    G Am                              D            Am               D
auf      Und irgendwann fragst di wieso quäl I mi da so schrecklich ab,
         C                         G    Am G
Und bin net längst scho weiß Gott wo.
Solo
e-----------8-7------7----7-7-7h8p7---------7------7h8-8-8-7------7--|
h------8-10-----10-8----------------10-8-10------------------10-8----|
g--5/7----------------------------------------9----------------------|
d--------------------------------------------------------------------|
A--------------------------------------------------------------------|
E--------------------------------------------------------------------|

e-7-7-7h8p7--------7------7h8-8-8-7----------|
h----------10-8-10-----------------10-8-10---|
g-------------------9------------------------|
d--------------------------------------------|
A--------------------------------------------|
E--------------------------------------------|

e7h8-8-8-7------------7h8-8-8-7--------------|
h---------10-8-10--------------8-10-8--1/3-1-|
g--------------------------------------------|
d--------------------------------------2/4-2-|
A--------------------------------------------|
E--------------------------------------------|

                  G   Am G                                C        G Am
Aber no is net soweit,      noch was zu tun befiehlt die Eitelkeit.
                      G    Am G                          C            G Am
Doch bevor der Herzinfarkt,     mich mit vierzig in die Windeln brackt,
                           D             Am              D
Lieg I scho irgendwo am Strand, a Bottle Rotwein in der Hand,
                C              G    Am  G
Und streck die Fiaß in weißen Sand.
2x Refrain: +   Am  G       Am  G
Comments