Stryper - Soldiers Under Command Chords & Tabs

 

Soldiers Under Command Chords & Tabs

Stryper Chords & Tabs

Version: 1 Type: Tab 0 ratings
1 star 2 stars 3 stars 4 stars 5 stars
comments

Soldiers Under Command Tab

Intro

Eb------------------------------------------------------------|
Bb------------------------------------------------------------|
Gb--5-4-2-----------------------------------------------------|
Db--3-2-0-5\7---7-8-7-----------------------------------------|
Ab--------3\5--5-5-5-5--5-8-5-7-5-5--5-8-5-7-5-5-5-8-5-5-5-5-5|
Eb--------------------------------------------------------8---|
               x x x    x   x   x    x   x   x   x   x   x x
[ Tab from: http://www.guitartabs.cc/tabs/s/stryper/soldiers_under_command_tab.html ]
Eb--------------------------|
Bb--------------------------|
Gb--------------------------| {Play 2x}
Db--------------------------|
Ab--5-8-5-7-5-8--5-8-5-7-5-5|
Eb--------------------------|
    x   x   x    x   x   x

Eb-----------------------------------------------------------------|
Bb-16~~~~~~~15~~~~~~~13~~~~~~~--16~~~~~~~15~~~~~~~13h15p13---------|
Gb--------------------------------------------------------14~~~~~~~|{Play 2x}
Db-----------------------------------------------------------------|
Ab-----------------------------------------------------------------|
Eb-----------------------------------------------------------------|

Rythem

Eb-----------------------|
Bb-----------------------|
Gb-----------------------|
Db-8--88-----4--44-----6~|
Ab-6--66-----2--22-----4~|
Eb-----------------------|

This is my first tab so, tell me how I did. Have fun with this song.
Comments