Stryper - Reborn Chords & Tabs

 

Reborn Chords & Tabs

Stryper Chords & Tabs

Version: 1 Type: Tab

Reborn Tab

                             STRYPER
                             REBORN
                       OFF OF THE ALBUM REBORN (2005)

----------------------------------|---------------------------------|
----------------------------------|---------------------------------|
----------------------------------|-5-5--5-5-5-5--5-5--5-5-5-5------|
--2-2--2-2-2-2--2-2--2-2-2-2------|-5-5--5-5-5-5--5-5--5-5-5-5--x-x-|
--2-2--2-2-2-2--2-2--2-2-2-2--x-x-|-3-3--3-3-3-3--3-3--3-3-3-3--x-x-|
--0-0--0-0-0-0--0-0--0-0-0-0--x-x-|---------------------------------|

---------------------------------|------------------------------------------|
---------------------------------|------------------------------------------|
--2-2--2-2-2-2--2-2--2-2-2-2-----|------------------------------------2-2-2-|
--2-2--2-2-2-2--2-2--2-2-2-2--x--|--2-2--2-2-2-2--2-2--2-2-2-2--------2-2-2-|
--0-0--0-0-0-0--0-0--0-0-0-0--x--|--2-2--2-2-2-2--2-2--2-2-2-2--------0-0-0-|
---------------------------------|--0-0--0-0-0-0--0-0--0-0-0-0--0-3-0-------|
[ Tab from: http://www.guitartabs.cc/tabs/s/stryper/reborn_tab.html ]
this is pretty much the main part of the song other than the chorus any way
after it or during it inthe background Oz is doin somethin like this with a wah pedal
                    during the wah part Mike is doin this
--------------------|-------------------------------------|
--------------------|-------------------------------------|
--9--9--9--9--9--9--|--------------5-5-5-5--2-2-2-2-------|
-----9-----9-----9--|-2-2-2-2-2-2--5-5-5-5--2-2-2-2-------|
--------------------|-2-2-2-2-2-2--3-3-3-3--0-0-0-0-------|
--------------------|-0-0-0-0-0-0-------------------------|

i actually dont know how many times each chord is hit but
its alot then the chorus that goes like this

-----------------------------|  hit each chord enough times that it sounds 
-----------------------------|  right i dont have enough room to tab out the 
--5-5-5-5--2-2-2-2-----------|  exact amont of times they do it so im tellin 
--5-5-5-5--2-2-2-2--2-2-2-2--|  you
--3-3-3-3--0-0-0-0--2-2-2-2--|
--------------------0-0-0-0--|

Thats about it I know it doesnt look like much but if you piece it together
right that's really all of it