Strung Out - Too Close To See Chords & Tabs

 

Too Close To See Chords & Tabs

Strung Out Chords & Tabs

Version: 2 Type: Bass Tab 0 ratings
1 star 2 stars 3 stars 4 stars 5 stars
comments

Too Close To See Bass Tab

Song:Too close to see
Band:Strung Out
Album:Twisted by Design
tabbed by: Alberto zorrico3@yahoo.com

                           FULL D TUNING
                           
   pre intro               intro
F:-------------|-----------------------
C:-------------|-------4>-7>-----------
G:--7--7-6-5-4-|-7>----------7>--------
D:-------------|----7>----------7>-5>--

verse1
F:---------------
C:---------------
G:--7>----4>-----  X 2
D:-----7>----5>--

intro
verse1 X 2
[ Tab from: http://www.guitartabs.cc/tabs/s/strung_out/too_close_to_see_btab_ver_2.html ]
verse2
F:-----------------------------------
C:--------------7-5-4-5--------------
G:--4>-7>---------------4>-7>--------
D:--------7>-5>---------------7>-5>--

bridge
F:----------------------
C:-------6>-7>-9-7-6-7--
G:---7>----------------- X 2
D:----------------------

verse1 X 2

verse3
F:----------------------------
C:---------4>-----------------
G:---7>----------7>----------- X 4
D:------7>----5>----7>-5>-7>--

verse1 X 6
verse2

outro
F:------------------------------------------------
C:--------4>-7>-----------------4>-7>-------4>----
G:--7>-----------7>-------7>----------7>----------
D:-----7>-----------7>-5>----7>----------7>----7--
Comments