Strung Out - Paperwalls Chords & Tabs

 

Paperwalls Chords & Tabs

Strung Out Chords & Tabs

Version: 1 Type: Bass Tab 0 ratings
1 star 2 stars 3 stars 4 stars 5 stars
comments

Paperwalls Bass Tab

Song: Paperwalls
Artist: Strung Out
Album: Twisted By Design
Tabbed by: Shaun McDonald (diesel_weasel@lycos.com)

Tune down one full step

X - fret muted
/ - slide up
\ - slide down
r - rest

F|----------------|----------------|----------------|----------------|
C|----------------|----------------|----------------|----------------|
G|----------------|----------------|----------------|----------------|
D|----------------|----------------|----------------|----------------|


Intro(2x):
F|----------------|----------------|----------------|----------------|
C|----------------|----------------|----------------|----------------|
G|3---3-----X-3---|3---3-----X-3---|----------------|----------------|
D|----------------|----------------|5---5-----X-5---|5---5-----X-5---|

F|----------------|----------------|----------------|----------------|
C|----------------|----------------|----------------|----------------|
G|----------------|----------------|----------------|----------------|
D|3---3-----X-3---|3---3-----X-3---|1---1-----X-1---|1---1-----X-1/3-|


Verse:
F|----------------|----------------|----------------|----------------|
C|----------------|2---2-----X-2---|3---3-----X-3---|5---5-----X-5---|
G|3---3-----X-3---|----------------|----------------|----------------|
D|----------------|----------------|----------------|----------------|

F|----------------|----------------|----------------|----------------|
C|----------------|----------------|----------------|----------------|
G|3---3-----X-3---|----------------|----------------|----------------|
D|----------------|3---3-----X-3---|1---1-----X-1---|1---1-----X-1/3-|

F|----------------|----------------|----------------|----------------|
C|----------------|2---2-----X-2---|3---3-----X-3---|5---5-----X-5---|
G|3---3-----X-3---|----------------|----------------|----------------|
D|----------------|----------------|----------------|----------------|

F|----------------|----------------|----------------|----------------|
C|----------------|----------------|----------------|--------5-5-5-5-|
G|3---3-----X-3---|----------------|----------------|----------------|
D|----------------|3---3-----X-3---|1---1-----X-1---|1---1-----------|

Chorus:
F|----------------|----------------|----------------|----------------|
C|----------------|----------------|----------------|----------------|
G|5-5-5-5-5-5-5-5-|5-5-5-5-5---7---|8-8-8-8-8-8-8-8-|8-8-8-8-8-8-8-8-|
D|----------------|----------------|----------------|----------------|

F|----------------|----------------|----------------|----------------|
C|----------------|----------------|----------------|----------------|
G|----7---7-------|----5---5-------|----3---3-------|5---3---2---3---|
D|5-5---5---5-5-5-|3-3---3---3-3-3-|1-1---1---1-1-1-|----------------|

F|----------------|----------------|----------------|----------------|
C|----------------|----------------|----------------|----------------|
G|5-5-5-5-5-5-5-5-|5-5-5-5-5---7---|8-8-8-8-8-8-8-8-|8-8-8-8-8-8-8-8-|
D|----------------|----------------|----------------|----------------|
[ Tab from: http://www.guitartabs.cc/tabs/s/strung_out/paperwalls_btab.html ]
F|----------------|----------------|----------------|----------------|
C|----------------|----------------|----------------|----------------|
G|----7---7-------|----5---5-------|----3---3-------|5-5-5-5-5-5-5-5-|
D|5-5---5---5-5-5-|3-3---3---3-3-3-|1-1---1---1-1-1-|----------------|

F|----------------|----------------|----------------|----------------|
C|----------------|----------------|----------------|----------------|
G|----7---7-------|----5---5-------|----3---3-------|5-5-5-5-5r------|
D|5-5---5---5-5-5-|3-3---3---3-3-3-|1-1---1---1-1-1-|----------------|

Intro 2x

Verse

Chorus

Bridge:
F|----------------|----------------|----------------|----------------|
C|--5-3-5-2-5-3-5-|--5-3-5-2-5-3-5-|----------------|----------------|
G|3---------------|3---------------|--7-5-7-4-7-5-7-|--7-5-7-4-7-5-7-|
D|----------------|----------------|5---------------|5---------------|

F|----------------|----------------|----------------|----------------|
C|----------------|----------------|----------------|----------------|
G|--5-3-5-2-5-3-5-|--5-3-5-2-5-3-5-|----------------|----------------|
D|3---------------|3---------------|1-1-1-1-1-1-1-1-|3---1---0---1---|

F|----------------|----------------|----------------|----------------|
C|--5-3-5-2-5-3-5-|--5-3-5-2-5-3-5-|----------------|----------------|
G|3---------------|3---------------|--7-5-7-4-7-5-7-|--7-5-7-4-7-5-7-|
D|----------------|----------------|5---------------|5---------------|

F|----------------|----------------|----------------|----------------|
C|----------------|----------------|----------------|----------------|
G|--5-3-5-2-5-3-5-|--5-3-5-2-5-3-5-|----------------|----------------|
D|3---------------|3---------------|1-1-1-1-1-1-1-1-|3---1---0---1---|

F|----------------|----------------|----------------|----------------|
C|----5---3---2---|----5---3---2---|----------------|----------------|
G|3---------------|3---------------|----7---5---4---|----7---5---4---|
D|----------------|----------------|5---------------|5---------------|

F|----------------|----------------|----------------|----------------|
C|----------------|----------------|----------------|----------------|
G|----5---3---2---|----5---3---2---|----------------|----------------|
D|3---------------|3---------------|1-1-1-1-1-1-1-1-|3---1---0---1---|

F|----------------|----------------|----------------|----------------|
C|----5---3---2---|----5---3---2---|----------------|----------------|
G|3---------------|3---------------|----7---5---4---|----7---5---4---|
D|----------------|----------------|5---------------|5---------------|

F|----------------|----------------|----------------|----------------|
C|----------------|----------------|----------------|----------------|
G|----5---3---2---|----5---3---2---|----------------|----------------|
D|3---------------|3---------------|1-1-1-1-1-1-1-1-|3---1---0---1---|

Verse3(2x):
F|5-5-5-5-5-5-5-5-|5-5-5-5-5-5-5-5-|----------------|----------------|
C|----------------|----------------|3-3-3-3-3-3-3-3-|3-3-3-3-3-3-3-3-|
G|----------------|----------------|----------------|----------------|
D|----------------|----------------|----------------|----------------|

F|2-2-2-2-2-2-2-2-|2-2-2-2-2-2-2-2-|----------------|----------------|
C|----------------|----------------|5-5-5-5-5-5-5-5-|5-5-5-5-5-5-5-5-|
G|----------------|----------------|----------------|----------------|
D|----------------|----------------|----------------|----------------|

Chorus

F|----------------|
C|----------------|
G|3---------------|
D|----------------|

Comments