Strung Out - Novacain Chords & Tabs

 

Novacain Chords & Tabs

Strung Out Chords & Tabs

Version: 1 Type: Tab 0 ratings
1 star 2 stars 3 stars 4 stars 5 stars
comments

Novacain Tab

   
----------------------------------------------------------------------------
			     NOVACAIN - Strung Out
----------------------------------------------------------------------------
Tabbed by: Jesse Benedick
Email: JBMetal311@Yahoo.com

Tuning: Standard
[ Tab from: http://www.guitartabs.cc/tabs/s/strung_out/novacain_tab.html ]
e|------------------------------|-----------------------|------------------|
B|--5-88-5-6--5-88-5-6----------|-----------------------|------------------|
G|--5-55-5-5--5-55-5-5----------|--x-5-x-4-x-2-x-4-5-7--|--5----3----2-----|
D|------------------------------|--x-5-x-5-x-3-x-5-5-7--|--5----3----2-----|
A|------------------------------|-----------------------|--3----1----0-----|
E|---------------------8-8-8-8--|-----------------------|------------------|
Repeat 3x              pm......
e|-----------------------|-------------------------------------------------|
B|-----------------------|-------------------------------------------------|
G|--5----3----2----------|--5---7/9\7\5--3---7\5/7\5\3--2---7-7\5-3--------|
D|--5----3----2----5-----|--5---x-x-x-x--3---x-x-x-x-x--2---x-x-x-x-7-5----|
A|--3----1----0----5-----|--3---5/7\5\3--1---5\3/5\3\1--0---5-5\3-1-x-x----|
E|-----------------3-----|------------------------------------------5-3----|
    pm..................    pm..         pm..         pm..
e|-------------------------|---|----------------------|--------------------|
B|-------------------------|---|----------------------|--------------------|
G|--5/7-7/9-9/10-10\9-7-5--|-5-|--10---5----2---------|--5----5----5-------|
D|--x-x-x-x-x-x--x--x-x-x--|-5-|--10---5----2----3----|--5----5----5-------|
A|--3/5-5/7-7/8--8\-7-5-3--|-3-|--8----3----0----3----|--3----3----3-------|
E|-------------------------|---|-----------------1----|--------------------|
  Repeat 3x                     Repeat 3x
e|------------------------------------|------------------------------------|
B|------8b10r8-6-5-6----6-5---5-----5-|------------------------------------|
G|-5-----------------5~-----7---5-7---|-5\4-44-4\2-22-2p0-00h2-2/4-4/5-555-|
D|-x----------------------------------|------------------------------------|
A|-3----------------------------------|------------------------------------|
E|------------------------------------|------------------------------------|
 Solo   Repeat Riff 3x
e|-----------------------------------------------------------13-12-10-12-13|
B|--------------------------------------------13-12-10-12-13---------------|
G|-777-999-101010-9999-777-999-1010-121212-10------------------------------|
D|-------------------------------------------------------------------------|
A|-------------------------------------------------------------------------|
E|-------------------------------------------------------------------------|

e|-15-13-12-13-12----12--------------------------|-------------------------|
B|----------------15----15-13-12----12-13-12-13~-|-------------------------|
G|-------------------------------14--------------|------------5------------|
D|-----------------------------------------------|-----3------5---------3-3|
A|-----------------------------------------------|-----3------3------------|
E|-----------------------------------------------|-000-1--000-----0-1-3----|
                                                  pm..    pm..    pm...
e|-----------------|-------|-----------------------------------------------|
B|----6-5---6-5----|-------|-----------------------------------------------|
G|--------5-----5--|-------|--5----3----2----5-5-5-5-5-5---5----3----2-----|
D|-----------------|-3--5--|--5----3----2----5-5-5-5-5-5---5----3----2----5|
A|-3---------------|-3--5--|--3----1----0----3-3-3-3-3-3---3----1----0----5|
E|-----------------|-1--3--|----------------------------------------------3|
      pm.........
e|--88888-8-10-88888--|----------------------|-----------------------------|
B|--88888-8-8--88888--|----------------------|-----3-5---3---5-6-5---------|
G|--------------------|-----4-5---4---5-7-5--|--55-----5---5---------------|
D|--------------------|--55-----5---5--------|-----------------------------|
A|--------------------|----------------------|-----------------------------|
E|--------------------|----------------------|-----------------------------|
                       Guitar 1               Guitar 2

| /  slide up
| \  slide down
| h  hammer-on
| p  pull-off
| ~  vibrato
| +  harmonic
| x  Mute note
============================================================================
Comments