Strung Out - No Voice Of Mine Chords & Tabs

 

No Voice Of Mine Chords & Tabs

Strung Out Chords & Tabs

Version: 1 Type: Tab 0 ratings
1 star 2 stars 3 stars 4 stars 5 stars
comments

No Voice Of Mine Tab

* Artist: Strung Out
* Song Title: No Voice of Mine
* Album: Exile in Oblivion & Rock Against Bush vol.1

h - hammer on
p - pull off
b - bend string up
r - release bend
/ - slide up - slide down
v - vibrato (sometimes written as ~)
t - right hand tap
X - Palm Mute


Intro:     Guitar 1


E----------------------------------------------------------------        A--0---000000---------------|
B--5p0-0-5p0-0-5p0-0-5p0-0-5p0-5p0-------------------------------        B--3h5-555555---------------|
G---------------------------------------------------------------- X 5    G---------------------------|
D----------------------------------------------------------------        D---------------------------|
A----------------------------------------------------------------        A --------------------------|
E----------------------------------------------------------------        E---------------------------|

           Guitar 2

E--0---0000--0---0000--0---00------    ---0---000000-------------|
B--3h5-5555--3h5-5555--3h5-55------    ---3h5-555555-------------|
G----------------------------------    --------------------------|
D----------------------------------X 3 --------------------------|
A----------------------------------    --------------------------|
E----------------------------------    --------------------------|
       XXXX      XXXX      XX

    * Next Part
E------------------------------    ------------------------------|
B------------------------------    ------------------------------|
G--5/7-7--5/7-7--5/7--1010-----    --5/7-7--5/7--10101010--------|
D--5/7-7--5/7-7--5/7--1010-----X 3 --5/7-7--5/7--10101010--------|
A--3/5-5--3/5-5--3/5--8-8------   ---3/5-5--3/5--8-8-8-8---------|
E--3/5-5--3/5-5--3/5--8-8------    --3/5-5--3/5--8-8-8-8---------|


Verse:

E---------------------------------|
B---------------------------------|
G---------------------------------|
D--5-5555555555555-8-----10-------| X 4
A--5-5555555555555-8-----10-------|
E--3-3333333333333-6-----8--------|
     XXXXXXXXXXXXX


Riff 1:

E---3-3-0-x7-7-0-x3-3-0-x5-3-2--x3-3-0-7-5-3-------0-2-3-5-------|
B--------------------------------------------5-7-8---------------|
G----------------------------------------------------------------|
D----------------------------------------------------------------|
A----------------------------------------------------------------|
E----------------------------------------------------------------|


Riff 2:      * listen to the song to get the rhythm right

             * alternate picking really helps during this part
E-----------------------------------  -------------------------------|
B---0-3-5-0-5-7-0-3-5-0-5-7-8-7-10--  -0-3-5-0-5-7-0-3-5-0-5-3-2h3-2-|
G-----------------------------------  -------------------------------| X 2
D-----------------------------------  -------------------------------|
A-----------------------------------  -------------------------------|
E-----------------------------------  -------------------------------|


Verse:

E---------------------------------     -------------------|
B---------------------------------     -------------------|
G---------------------------------     -------------------|
D--5-5555555555555-8-----10------- X 4 ---77777777777777--|
A--5-5555555555555-8-----10-------     ---77777777777777--|
E--3-3333333333333-6-----8--------     ---55555555555555--|
     XXXXXXXXXXXXX


Chorus:

E---3-3-0-x7-7-0-x3-3-0-x5-3-2--x3-3-0-7-5-3-------0-2-3-5-------|
B--------------------------------------------5-7-8---------------|
G----------------------------------------------------------------|
D----------------------------------------------------------------|
A----------------------------------------------------------------|
E----------------------------------------------------------------|
        then
E---------------------     --------|
B---7----7---9h11-----     --------|
G------8---8------8---     --------|
D--------------------- X 8 --5-----|
A---------------------     --3-----|
E----------------------    3-3-----|
[ Tab from: http://www.guitartabs.cc/tabs/s/strung_out/no_voice_of_mine_tab.html ]
Breakdown:
               Guitar 1
E----------------------------------------------------------------|
B--5p0-0-5p0-0-5p0-0-5p0-0-5p0-5p0-------------------------------|
G----------------------------------------------------------------| Continue playing until
D----------------------------------------------------------------|      * Next Part
A----------------------------------------------------------------|
E----------------------------------------------------------------|
               Guitar 2                                   (* not too sure about this part )
E--0---0000--0---0000--0---00------    (*--------------3---3---3----8---|
B--3h5-5555--3h5-5555--3h5-55------    ---0---2---2----4---5---4----10--|
G----------------------------------    ---2---4--b4---------------------|
D----------------------------------X 2----0-----------------------------|
A----------------------------------    ---------------------------------|
E----------------------------------    (*-------------------------------|
       XXXX      XXXX      XX

* Next Part

E------------------------------    ------------------------------|
B------------------------------    ------------------------------|
G--5/7-7--5/7-7--5/7--1010-----    --5/7-7--5/7--10101010--------|
D--5/7-7--5/7-7--5/7--1010-----X 3 --5/7-7--5/7--10101010--------|
A--3/5-5--3/5-5--3/5--8-8------   ---3/5-5--3/5--8-8-8-8---------|
E--3/5-5--3/5-5--3/5--8-8------    --3/5-5--3/5--8-8-8-8---------|


** Next Part


E----------------------------------------------------------------|
B---10~--8-6--10--8-6-6~--8-6--10--------------------------------|
G----------------------------------------------------------------|
D----------------------------------------------------------------|
A----------------------------------------------------------------|
E----------------------------------------------------------------|

Chorus:

E---3-3-0-x7-7-0-x3-3-0-x5-3-2--x3-3-0-7-5-3-------0-2-3-5-------|
B--------------------------------------------5-7-8---------------|
G----------------------------------------------------------------|
D----------------------------------------------------------------|
A----------------------------------------------------------------|
E----------------------------------------------------------------|
        then
E---------------------     --------|
B---7----7---9h11-----     --------|
G------8---8------8---     --------|
D--------------------- X 8 --5-----|
A---------------------     --3-----|
E----------------------    3-3-----|

Riff 2 / Outro:

E-----------------------------------  -------------------------------|
B---0-3-5-0-5-7-0-3-5-0-5-7-8-7-10--  -0-3-5-0-5-7-0-3-5-0-5-3-2h3-2-|
G-----------------------------------  -------------------------------| X 2
D-----------------------------------  -------------------------------|
A-----------------------------------  -------------------------------|
E-----------------------------------  -------------------------------|

E------------------------------------|
B---0-3-5-0-5-7-0-3-5-0-5-7-8-7-10---|
G------------------------------------|
D------------------------------------|
A------------------------------------|
E------------------------------------|

E---------------------------------------|
B---0-3-5-0-5-7-0-3-15p0-17p0-15p0-12p0-|
G---------------------------------------|
D---------------------------------------|
A---------------------------------------|
E---------------------------------------|

E------------------------------------|
B---0-3-5-0-5-7-0-3-5-0-5-7-8-7-10---|
G------------------------------------|
D------------------------------------|
A------------------------------------|
E------------------------------------|

E-------------------10p0-9p0-7p0-9p0-7p0-5p0-4p0-5p0-------|
B---0-3-5-0-5-7-0-0----------------------------------------|
G----------------------------------------------------------|
D--------------------------------------------------------2-|
A--------------------------------------------------------2-|
E--------------------------------------------------------0-|
Comments