Strung Out - King Alvarez Chords & Tabs

 

King Alvarez Chords & Tabs

Strung Out Chords & Tabs

Version: 2 Type: Bass Tab 0 ratings
1 star 2 stars 3 stars 4 stars 5 stars
comments

King Alvarez Bass Tab

   
Song: King Alvarez 
Band:Strung Out 
Album: Twisted by Design
tabbed by: Alberto zorrico3@yahoo.com

                  full D tuning                     
                           
intro  
F:--------------------------------------------------------------
C:------6-6-9-6-----------6-6-7-6-----------6-6-9-7-6-----------
G:--7-7---------5>----7-7---------------7-7---------------------  X 2
D:-----------------5>-------------3>-5>---------------9>-7>-5>--

verse
F:----------------------------------------------
C:----------------------------------------------          2nd time with
G:--7-7--4-4-------------------------------2-2-- X 2    different strumming
D:-----------7-7--0-0--5-5--2-2--2-2--2-2-------
[ Tab from: http://www.guitartabs.cc/tabs/s/strung_out/king_alvarez_btab_ver_2.html ]
bridge
F:------------------------
C:------------------------
G:--7>-4>-------------2>--
D:--------7>-0>-5>-2>-----

verse

chorus  A      B    kinda              C
F:--------|---------------------|-----------
C:--------|---------7-9---------|-----------
G:--------|-6-7-8-9-----9-8-7-6-|-4>--------
D:--5>-7>-|---------------------|----5>-7>--
             while playing this
            never stop strummin
verse
chorus

bridge 2
F:----------------------------
C:----------------------------
G:-----7>-4>-7-7-------7>-4>-- X 2
D:--5>-----------7>-5>--------

verse over solo
chorus play A; B; C; B; C                                                                  

outro                                                                  
G:-----------
D:-----------
A:--7-7-7----
D:--------5--
Comments