Strung Out - Firecracker Chords & Tabs

 

Firecracker Chords & Tabs

Strung Out Chords & Tabs

Version: 1 Type: Tab 0 ratings
1 star 2 stars 3 stars 4 stars 5 stars
comments

Firecracker Tab

   
SOT

Guitar Tab for FirecrackerFirecracker 


      Suburban Teenage Wasteland Blues

  Copyright ©1996 - Strung Out   		
	



Intro Riff (0:06) 

Rob:
  
d|--------------|    
A|--------------|    
F|---7...-------|
C|---X...-------|
G|---5...-------|
D|--------------|

Octave Intro (0:09)


Jake:

d|---------------------------------------------------------------------------|
A|---------------------------------------------------------------------------|
F|---7777777777777-111111111111111111111111111-12121212121212121212-99999999-|
C|---xxxxxxxxxxxxx-x-x-x-x-x-x-x-x-x-x-x-x-x-x--x--x--x--x--x--x--x-xxxxxxxx-|
G|---5555555555555-9-9-9-9-9-9-9-9-9-9-9-9-9-9-10-10-10-10-10-10-10-77777777-|
D|---------------------------------------------------------------------------|

d|-------------------------------------------------------------|
A|-------------------------------------------------------------|
F|---777777777777-666666666666-444444444444--------------------|
C|---xxxxxxxxxxxx-xxxxxxxxxxxx-xxxxxxxxxxxx-777777777777-7...\-|
G|---555555555555-444444444444-222222222222-xxxxxxxxxxxx-5...\-|
D|------------------------------------------555555555555-------|

Rob:
						     
d|-------------------------------------------------------|
A|-------------------------------------------------------|
F|-------------------------------------------------------|
C|---77777777777-444444444444----------------------------| 
G|---55555555555-222222222222-555555555555-777777777777--| 
D|----------------------------333333333333-555555555555--|

d|-------------------------------------------------------------|
A|-------------------------------------------------------------|
F|---777777777777-666666666666-444444444444--------------------|
C|---xxxxxxxxxxxx-xxxxxxxxxxxx-xxxxxxxxxxxx-777777777777-7...\-|
G|---555555555555-444444444444-222222222222-xxxxxxxxxxxx-5...\-|
D|------------------------------------------555555555555-------|


"Laughed Out Loud" Riff (0:33)


Jake and Rob:
	
d|-------------------------------------------------|
A|-------------------------------------------------|
F|-------------------------------------------------|
C|---7...--------4...------------------------------|
G|---5...--------2...-------5...---2...---7...-----|
D|--------------------------3...---0...---5...-----|
	
Jake and Rob (0:39)

d|------------------------------|
A|------------------------------|
F|------------------------------|
C|------------7777--------------|
G|--5555-7777-5555-9999-5555-7R-|
D|--3333-5555------7777-3333-5R-|

Interlude/Solo Riff (0:43)



Rob:
		                (4x)		
d|----------------------------------|
A|----------------------------------|
F|-7-7-7-7-7-7-7-7-7-7-7-7--9--6----|
C|-x-x-x-x-x-x-x-x-x-x-x-x--x--x----|
G|-5-5-5-5-5-5-5-5-5-5-5-5--7--4----|
D|----------------------------------|

Jake:
		                (4x)		
d|----------------------------------|
A|----------------------------------|
F|----------------------------------|
C|-7-7-7-7-4-4-4-4------------------|
G|-5-5-5-5-2-2-2-2-5-5-5-5-7-7-7-7--|
D|-----------------3-3-3-3-5-5-5-5--|

Verse Riff (0:53)


Jake & Rob:
[ Tab from: http://www.guitartabs.cc/tabs/s/strung_out/firecracker_tab.html ]
d|------------------------------------------------------------------------------|
A|----------------------------------------------8888----------------------------|
F|----------------------------------------------7777----------------------------|
C|-7777-----------1414-7777------9999------7777-5555------1414-7777-------------|
G|-5555-5555-9999-1212-5555-9999-7777-7777-5555------9999-1212-5555-9999-77-777-|
D|------3333-7777-----------7777------5555-----------7777-----------7777-55-555-|

Interlude/Solo w/ Different Lead (1:04)


Rob:
			          (4x)
d|-----------------------------------|
A|-----------------------------------|
F|---7-6-7----7-6-7---7-6-7---7-6-7--|
C|----------9-------5-------7--------|
G|-5---------------------------------|
D|-----------------------------------|

Jake:
		                (4x)		
d|----------------------------------|
A|----------------------------------|
F|----------------------------------|
C|-7-7-7-7-4-4-4-4------------------|
G|-5-5-5-5-2-2-2-2-5-5-5-5-7-7-7-7--|
D|-----------------3-3-3-3-5-5-5-5--|

Verse Riff #2 (1:14)


Jake & Rob:
			    (2x)
d|------------------------------|
A|------------------------------|
F|------------------------------|
C|-77777-444444--------14141414-|
G|-55555-222222-555555-12121212-|
D|--------------333333----------|

Interlude Riff #2 (1:25)



Jake:
   			     (4x)		      	
d|------------------------------|
A|------------------------------|
F|------------------------------|
C|-7-7-7-74-------------4-4-2-2-|
G|-5-5-5-52--4--5-5-5-5-2-2-0-0-|
D|-----------2--3-3-3-3---------|

Rob:

   			    (2x)	                    (2x)
d|------------------------------|-------------------------------|
A|------------------------------|-------------------------------|
F|------------------------------|--7-7-7-77--6------------------|
C|-7-7-7-74-------------4-4-2-2-|--x-x-x-xx--x----------4-4-2-2-|
G|-5-5-5-52--4--5-5-5-5-2-2-0-0-|--5-5-5-55--4--5-5-5-5-2-2-0-0-|
D|-----------2--3-3-3-3---------|---------------3-3-3-3---------|


Verse Riff #2 Repeated (1:37)



Interlude/Solo Riff Repeated (1:47)



Octave Breakdown Riff (2:06)


Jake:

d|---------------------------------------------------------|
A|---------------------------------------------------------|
F|---7777777777777-12-11--9--12-11--9--777777141414141414--|
C|---xxxxxxxxxxxxx--x--x--x---x--x--x--xxxxxx-x-x-x-x-x-x--|
G|---5555555555555-10--9--7--10--9--7--555555121212121212--|
D|---------------------------------------------------------|

d|---------------------------------------------------------|
A|---------------------------------------------------------|
F|---12-11--9-12-11--9--14-12-11-14-12-11--12-11--9-11--9--|
C|----x--x--x--x--x--x---x--x--x--x--x--x---x--x--x--x--x--|
G|---10--9--7-10--9--7--12-10--9-12-10--9--10--9--7--9--7--|
D|---------------------------------------------------------|

Rob:

d|--------------------------------------------------------|
A|--------------------------------------------------------|
F|-----------------1111111111111-12121212121212-99999999--|
C|---7777777777777--xxxxxxxxxxxx--x-x-x-x-x-x-x-xxxxxxxx--|
G|---5555555555555--999999999999-10101010101010-77777777--|
D|--------------------------------------------------------|

d|--------------------------------------------------------|
A|--------------------------------------------------------|
F|---7777777777777-14141414141414141414141414141414141414-|
C|---xxxxxxxxxxxxx--x-x-x-x-x-x-x-x-x-x-x-x-x-x-x-x-x-x-x-|
G|---5555555555555-12121212121212121212121212121212121212-|
D|--------------------------------------------------------|

Verse Riff #2 Repeated (2:23)


Interlude/Solo Riff Repeated (2:39)












Comments