Strung Out - Exhumation Of Virginia Madison Chords & Tabs

 

Exhumation Of Virginia Madison Chords & Tabs

Strung Out Chords & Tabs

Version: 1 Type: Bass Tab 0 ratings
1 star 2 stars 3 stars 4 stars 5 stars
comments

Exhumation Of Virginia Madison Bass Tab

Song:Exhumation of Virginia Madison
Band:Strung Out 
Album: Twisted by Design
tabbed by: Alberto zorrico3@yahoo.com

                  FULL D TUNING                      
                           
intro    part 1                   part 2              part 3
F:--------------------|---------------------------|----------4>--
C:--------------5>----|---------------------------|-4>-5>-7>-----
G:--5>----2>-4>----5>-|---------------------------|--------------
D:-----5>-------------|-2-5-5-2-5-5-2-4-2-4-2-4-5-|--------------
play: part 1; part 2; part 1; part 3

verse   part 1          part  2                 part 3        part 4
F:-----------------|----------------------|-----------------|------
C:---------4-4-----|----4-5-7-5-7---------|-------------5-2-|------
G:--5>-7-7-----7-7-|-5>-------------------|-5-5-4-4-2-2-----|------
D:-----------------|--------------3>-2-3>-|-----------------|--5>--
play: part 1; part 2; part 3; part 1; part 2; part 4
[ Tab from: http://www.guitartabs.cc/tabs/s/strung_out/exhumation_of_virginia_madison_btab.html ]
chorus  part 1           part 2               part 3         part 4
F:--------------|-------------------------|-------------|--------------
C:--------------|-------------------------|-------------|----4>-5>-7>--
G:--5>-7>----5>-|-------------------------|-5>-7>-------|-7>-----------
D:--------7>----|-2-2-3-2-3>-2-2-3-2-3-5>-|-------7>-3>-|--------------
play: part 1; part 2; part 3; part 4

verse

bridge        and now i close my eyes...
F:-----------------------------
C:--------------------------5--
G:--5>----------5>-7>-5>-7>----
D:-----5>-3>-5>----------------

bridge 2
F:--------------------------|     |----------------------------------|
C:-----------5>-------5>-7>-|     |-----------------5-5-5-5-7-7-7-7--|
G:--5>----7>----5>-7>-------| X 2 |-5-5-5-5-7-7-7-7------------------|  X 4 
D:-----5>-------------------|     |----------------------------------|
                                                                  
chorus  
instead of part 4 play          end  on                                                        
F:-----------|                |----------
C:-----------|                |----------
G:--------7>-|                |--5>------
D:--5>-7>----|                |----------


Comments