Strung Out - Every Breath You Take Chords & Tabs

 

Every Breath You Take Chords & Tabs

Strung Out Chords & Tabs

Version: 1 Type: Tab 0 ratings
1 star 2 stars 3 stars 4 stars 5 stars
comments

Every Breath You Take Tab

   
Band: STRUNG OUT
Song: Every Breath You Take
STANDARD TUNING
Tabbed out by Matt Connors! E-MAIL: blue_slurpie@hotmail.com
I am 95.5% sure that this is correct!
This is my first tab out on the net! So cut me some slack!
I didn’t do the timing and all that crap! 
This sounds pretty good, except I couldn’t figure out the lead stuff at the intro and bridge!
I tabbed this out cuz no one else has tabbed this out yet!
So here it is! 

Intro
e|----------------------| 
B|------------5---7-----| 
G|------------5---7-----| 
D|-5---4--2---3---5---5-| 
A|-5---4--2-----------5-| 
E|-3---2--0-----------3-| 

Pre-Chorus
e|---------------------| 
B|---------------------| 
G|-5---3-----------7/5-| 
D|-5---3---5---7---7/x-| 
A|-3---1---5---7---5/3-| 
E|---------3---5-------|

Verse 1 (PM)
e|-----------------------| 
B|-----------------------| 
G|-------------5---7-----| 
D|-5---4---2---5---7---2-| 
A|-5---4---2---3---5---2-| 
E|-3---2---0-----------0-|

Bridge
e|-----------------------| 
B|-----------------------| 
G|-3---5---3---5---3-----| 
D|-3---5---3---5---3---5-| 
A|-1---3---1---3---1---5-| 
E|---------------------3-|
[ Tab from: http://www.guitartabs.cc/tabs/s/strung_out/every_breath_you_take_tab.html ]
Solo (LEAD)
e|------------------------------------------------------------------| 
B|------------------------------------------------------------------| 
G|--------754---754---754---754---754---754---754---754---545454-24-| 
D|-5555555---555---555---555---555---555---555---555---555---------5| 
A|------------------------------------------------------------------| 
E|------------------------------------------------------------------|

Solo (RHYTHM)
e|-----------------------------------| 
B|-----------------------------------| 
G|---------5---7---------------5---7-| 
D|-5---2---5---7---5---4---2---5---7-| 
A|-5---2---3---5---5---4---2---3---5-| 
E|-3---0-----------3---2---0---------|

Verse 2
e|-----------------------| 
B|-----------------------| 
G|-----------------7---5-| 
D|-5---2---5---7---7---5-| 
A|-5---2---5---7---5---3-| 
E|-3---0---3---5---------|

 
Verse 3
e|---------------| 
B|---------------| 
G|---------5---7-| 
D|-5---2---5---7-| 
A|-5---2---3---5-| 
E|-3---0---------|

Ending
e|---------| 
B|---------| 
G|---------| 
D|-5555555-|
A|-5555555-| 
E|-3333333-|

ORDER
INTRO		X3
PRE-CHORUS	X1
VERSE 1	X1
BRIDGE	X1
SOLO(LEAD)	X1
SOLO(RHYTHM)X1
VERSE 2	X1
VERSE 1	X2
VERSE 3	X3
ENDING	X Till End!

If u want to send some corrections or send me the other lead stuff then the e-mail address is above!
Comments