Strung Out - Cemetary Chords & Tabs

 

Cemetary Chords & Tabs

Strung Out Chords & Tabs

Version: 1 Type: Tab 0 ratings
1 star 2 stars 3 stars 4 stars 5 stars
comments

Cemetary Tab

   
Song: Cemetery
Atrist: Strung out
Tabbed By: Justin Barkley
Contact: RedSquirrel5721 on msn, aim or yahoo

easilly one of the best punk gone hard rock back to punk bands ever!! haha
really bitchin musicians... great talent... lots of work in their songs.
here we go:


   Gtr1. Riff1
E |------------------||
B |---------3h4-3-5--||
G |--3h5-5-----------||
D |------------------|| 8x
A |------------------||
E |------------------||

4th time through Gtr2 starts Riff 1:
E |-8-8---11-11---10-10--6-6-6/8--||
B |-----8------8-------8----------||
G |-------------------------------|| 
D |-------------------------------||4x 
A |-------------------------------|| 
E |-------------------------------|| 

Gtr. 1 Riff 2 Verse: 2x
E |----------------------------------------------------------||
B |----------------------------------------------------------||
G |-5-555555555555555-5-5555555555555555---------------------||
D |-5-555555555555555-5-5555555555555555-6-4444444444444444--||
A |-3-333333333333333-3-3333333333333333-6-4444444444444444--||
E |--------------------------------------4-6666666666666666--||   
   p.m..............    ................   ................

E |--------------------||
B |--------------------||
G |--------------------||
D |-8-8888888888888888-||
A |-8-8888888888888888-||
E |-6-6666666666666666-||
      ................

Gtr2 riff 2 Verse:
2nd time Gtr 1 starts riff 2:
         2x  then--------
E |--------------------|--------------------------------------||
B |--------------------|--------------------------------------||
G |-5---33----33-------|--------------------------------------||
D |-5-55--55----55-----|-6---66--66-----8---88---88-77-55-----||
A |-3-------33----33---|-6-66------66---8-88--88----------8---||
E |--------------------|-4-----44----44-6---------------------||

Chorus:
   Gtr1. Riff3
E |------------------||
B |---------3h4-3-5--||
G |--3h5-5-----------||
D |------------------|| 4x
A |------------------||
E |------------------||
   
 
   Gtr2. Riff3:                 end with:
E |-8-8---11-11---10-10--6-6-6/8--||   E |-11-10-8-11-10-8----||
B |-----8------8-------8----------||   B |----------------11/-||
G |-------------------------------||   G |--------------------||
D |-------------------------------||4x D |--------------------||
A |-------------------------------||   A |--------------------||
E |-------------------------------||   E |--------------------||


Gtr1 Riff4 Verse 2:
Gtr. 1 Riff 2 Verse: 2x
E |----------------------------------------------------------||
B |----------------------------------------------------------||
G |-5-555555555555555-5-5555555555555555---------------------||
D |-5-555555555555555-5-5555555555555555-6-4444444444444444--||
A |-3-333333333333333-3-3333333333333333-6-4444444444444444--||
E |--------------------------------------4-6666666666666666--||
   pm ..............    ................   ................  

E |--------------------||
B |--------------------||
G |--------------------||
D |-8-8888888888888888-||
A |-8-8888888888888888-||
E |-6-6666666666666666-||
      ................

Gtr2 Riff 4 Verse 2
   1/2way through Gtr1 Riff4
   REALY HARD to hear *sounds something like this*
E |------------------------------------||
B |--8-6/11/6-666-4/8--8-6-8-6-4/------||
G |------------------------------------||
D |--5-3/7-/3-333-1/5--5-3-5-3-1/------||
A |------------------------------------||
E |------------------------------------||
[ Tab from: http://www.guitartabs.cc/tabs/s/strung_out/cemetary_tab.html ]
         2x  then--------
E |--------------------|--------------------------------------||
B |--------------------|--------------------------------------||
G |-5---33----33-------|--------------------------------------||
D |-5-55--55----55-----|-6---66--66-----8---88---88-77-55-----||
A |-3-------33----33---|-6-66------66---8-88--88----------8---||
E |--------------------|-4-----44----44-6---------------------||

Chorus2:
   Gtr1. Riff5
E |------------------||
B |---------3h4-3-5--||
G |--3h5-5-----------||
D |------------------|| 4x
A |------------------||
E |------------------||
   Gtr2. Riff5: 
E |-8-8---11-11---10-10--6-6-6/8--||
B |-----8------8-------8----------||
G |-------------------------------|| 
D |-------------------------------||4x 
A |-------------------------------|| 
E |-------------------------------|| 

then it sounds like both guitars play:
E |------------------||
B |---------3h4-3-5--||
G |--3h5-5-----------||
D |------------------|| 4x
A |------------------||
E |------------------||

Gtr1 Riff6 Bridge:
E |----------------------------------------------------3-----||
B |----3-4-3-4-3--------4-3---4-3------------4-3---3-4---6---||
G |-5------------5-3-5------5-----5------3h5-----5-----------||
D |---------------------------------2/3----------------------||
A |----------------------------------------------------------||
E |----------------------------------------------------------||

E |-----------------------------------3-----||
B |-----4-3---4-3-----------4-3---3-4---6---||
G |-3h5-----5-----5-----3h5-----5-----------||
D |-----------------2/3---------------------||
A |-----------------------------------------||
E |-----------------------------------------||

Guitar 2 Riff 6 Bridge:         then:
E |----------------------------|------------------------------------||
B |----------------------------|------------------------------------||
G |----------------------------|-4-----------------4----------------||
D |--10-12-13-12-13-12-10-8-10-|-4-20ishx-6--------4-20ishx-6-------||
A |----------------------------|-2--------6-20ishx-2--------6-16x---||
E |----------------------------|----------4-----------------4-------||

then Gtr1 plays this until the end
E |------------------||
B |---------3h4-3-5--||
G |--3h5-5-----------||
D |------------------|| 
A |------------------||
E |------------------||
meanwhile gtr2 plays a really bitchin solo that is un tabbable haha
but if you find the key and improv it's not hard to mimic the sound
AFTER the really bitchin solo 
Gtr 2 plays this till end and fades out

E |-8-8---11-11---10-10--6-6-6/8--||
B |-----8------8-------8----------||
G |-------------------------------|| 
D |-------------------------------||4x 
A |-------------------------------|| 
E |-------------------------------|| 

Lyrics:
An electric concrete fantasy 
Where the billboards keep on warning me
That if I don't keep moving, I'll get stuck in this place 
Where nobody gets out alive.

The dead all came out to play in this metropolitan decay, 
A cemetry called Los Angeles.
The sun holds no regrets 
The natives sway under arrest 
As all the stars fall from the sky.

Now we've all sold our souls 
We're just waiting for the show 
To begin here at the edge.

What the hell we doing here 
We're everywhere
But no one's here, 
Bodies in motion, desperate motion.
The angels have all gone insane 
I know I'll never be the same so let it ride 
We're going for a ride.
Now we've all sold our souls 
We're just waiting for the show 
To begin here at the edge.

Now I watch those zombies celebrate 
The burning of their favorite heretics and demigods.

The dead all came out to play in this metropolitan decay, 
A cemetry called Los Angeles.
The dead all came out to play in this metropolitan decay, 
A cemetry called Los Angeles.
The dead all came out to play in this metropolitan decay, 
A cemetry called Los Angeles.
The dead all came out to play in this metropolitan decay, 
A cemetry called Los Angeles.

{fade}The dead all came out to play in this metropolitan decay, 
A cemetry called Los Angeles.
Comments