Strung Out - Asking For The World Chords & Tabs

 

Asking For The World Chords & Tabs

Strung Out Chords & Tabs

Version: 1 Type: Tab 0 ratings
1 star 2 stars 3 stars 4 stars 5 stars
comments

Asking For The World Tab

   
Yet another wonderful copy of someone else's work by SOT.

Guitar Tab for Asking For The WorldAsking For The World 


      Twisted By Design

  Words by Jim Cherry
  Music by Jim Cherry and Strung Out
  Copyright ©1998 - Strung Out   		
	



Intro Riff (0:00) 

Guitar 1:

d|-----------------------------------------------------------------|
A|-----------------------------------------------------------------|
F|-----------------------------------------------------------------|
C|--9-9-9-10101010---------------9-9-9-101010101010----------------|
G|--7-7-7--8-8-8-8--1010-77-88---7-7-7--8-8-8-8-8-8--1010-77-8888--|
D|-------------------8-8-55-66------------------------8-8-55-6666--|
    . . .  . . . .               . . .  . . . . . .
Guitar 2:

d|-----------------------------------------------------------------|
A|-----------------------------------------------------------------|
F|-----------------------------------------------------------------|
C|-----------------------------------------------------------------|
G|------------------1010-77-88/----------------------1010-77-8888--|
D|-------------------8-8-55-66/-----------------------8-8-55-6666--|

Verse Riff (0:07)


Jake & Rob:

d|---------------------------------------------------------------------------|
A|---------------------------------------------------------------------------|
F|---------------------------------------------------------------------------|
C|----------33333333----------7777-5555-33333333-----------------------------|
G|-33333333-11111111-77777777-5555-3333-11111111-33333333-7777777777777777---|
D|-11111111----------55555555--------------------11111111-5555555555555555---|

Chorus Riff (0:22)


Jake & Rob:

d|---------------------------------------------------------|
A|---------------------------------------------------------|
F|---------------------------------------------------------|
C|----------33333333----------7777-5555-33333333-55555555--|
G|-33333333-11111111-77777777-5555-3333-11111111-33333333--|
D|-11111111----------55555555------------------------------|

Intro Riff Repeated (0:32)



Verse Riff Repeated (0:39)



Chorus Riff Variation (0:54)


Jake & Rob:

d|-------------------------------------------------------------------------|
A|-------------------------------------------------------------------------|
F|-------------------------------------------------------------------------|
C|----------33333333----------7777-5555-33333333-55555555------------------|
G|-33333333-11111111-77777777-5555-3333-11111111-33333333-3333333333333333-|
D|-11111111----------55555555-----------------------------1111111111111111-|

Bridge Riff (1:08)


Jake & Rob:
[ Tab from: http://www.guitartabs.cc/tabs/s/strung_out/asking_for_the_world_tab.html ]
d|---------------------------------------------------------------------------|
A|---------------------------------------------------------------------------|
F|---------------------------------------------------------------------------|
C|----------------------8-88-77-88-77-88-77----------------------------------|
G|-88-77-88-77-88-77-55-6-66-55-66-55-66-55-88--8888-77-88-77-88-77-55-------|
D|-66-55-66-55-66-55-33---------------------66--6666-55-66-55-66-55-33-------|
                                                 ... .. .. .. .. .. ..

d|---------------------------|
A|---------------------------|
F|-8-88-77-88-77-88-77-1010--|
C|-8-88-77-88-77-88-77-1010--|
G|-6-66-55-66-55-66-55-8-8---|
D|---------------------------|

Guitar 1 Solo (1:22)



d|-----------------------------------------------------------------|
A|-----------------------------------------------------------------|
F|------------------14141414141414141414141414141414/151517171717--|
C|-1010101010101010--x-x-x-x-x-x-x-x-x-x-x-x-x-x-x-x--x-x-x-x-x-x--|
G|--8-8-8-8-8-8-8-8-12121212121212121212121212121212/131315151313--|
D|-----------------------------------------------------------------|


d|-------------------------------------------------12-15/18-12-13-13---------|
A|-15-13-------15-13----13---------------------------------------------------|
F|-------15-15-------15----15-14-12----12-14-15-14---------------------------|
C|----------------------------------15---------------------------------------|
G|---------------------------------------------------------------------------|
D|---------------------------------------------------------------------------|


d|---17-17b(18)-15-13-13-13-15p13-12----------12-13-12-13-15-17-15-13-12-13--|
A|-----------------------------------15-13-15--------------------------------|
F|---------------------------------------------------------------------------|
C|---------------------------------------------------------------------------|
G|---------------------------------------------------------------------------|
D|---------------------------------------------------------------------------|


d|---------------------------------|
A|-13b(15)-13b(15)-----------------|
F|---------------------------------|
C|-----------------13/15-14-15...--|
G|---------------------------------|
D|---------------------------------|

Guitar Solo Riff (1:22)


Guitar 2:

d|---------------------------------------------------------------------------|
A|---------------------------------------------------------------------------|
F|---------------------------------------------------------------------------|
C|----------33333333----------7777-5555-33333333-----------------------------|
G|-33333333-11111111-77777777-5555-3333-11111111-33333333-7777777777777777---|
D|-11111111----------55555555--------------------11111111-5555555555555555---|

d|---------------------------------------------------------|
A|---------------------------------------------------------|
F|----------33333333----------7777-5555-33333333-55555555--|
C|-33333333-33333333-77777777-7777-5555-33333333-55555555--|
G|-33333333-11111111-77777777-5555-3333-11111111-33333333--|
D|-11111111----------55555555------------------------------|

Intro Riff Repeated (1:46)



Verse Riff Repeated (1:53)


Chorus Riff Repeated (2:07)



Outro Riff (2:17)


Guitar 1:

d|------------------|
A|------------------|
F|------------------|
C|--101010-1010...--|
G|--7-7-7--8-8-...--|
D|------------------|
    . . .  . 






Comments