Strong Bad - Trogdor Chords & Tabs

 

Trogdor Chords & Tabs

Strong Bad Chords & Tabs

Version: 2 Type: Tab 0 ratings
1 star 2 stars 3 stars 4 stars 5 stars
comments

Trogdor Tab

Song: Trogdor
Tabbed By: gUiTaRsLaVe
Made Popular By: Strong Bad
Tuning: Drop D

This tab is really accurate and simple. I really love the song (not to mention the site) 
I hope you enjoy it too. Check out www.homestarrunner.com/sbemails.html


Pattern 1
(TROOGDOOOOOOR!!!!!)


E------------------------------------------|
B------------------------------------------|
G------------------------------------------|
D------------------------------------------|
A-000-8-000-5-000-8-0-5-0-3-5--------------|
D-000-8-000-5-000-8-0-5-0-3-5--------------|


Repeat
============================================
(Trogdor was a man...)
E-----------------------------------------------|
B-----------------------------------------------|
G-----------------------------------------------|
D-----------------------------------------------|
A-0-0-8-0-0-10-0-0-8-0-0-10-0-8-8-8-------------|
D-0-0-8-0-0-10-0-0-8-0-0-10-0-8-8-8-------------|

[ Tab from: http://www.guitartabs.cc/tabs/s/strong_bad/trogdor_tab_ver_2.html ]
E-----------------------------------------------------|
B-----------------------------------------------------|
G-----------------------------------------------------|
D-----------------------------------------------------|
A-0-0-10-0-0-8-0-0-10-0-0-8-0-10-10-10----------------|
D-0-0-10-0-0-8-0-0-10-0-0-8-0-10-10-10----------------|


E-------------------------------------------------|
B-------------------------------------------------|
G-------------------------------------------------|
D-------------------------------------------------|
A-0-0-8-0-0-10-0-0-8-0-0-10-0-8-8-8---------------|
D-0-0-8-0-0-10-0-0-8-0-0-10-0-8-8-8---------------|


E-------------------------------------------------|
B-------------------------------------------------|
G-------------------------------------------------|
D-------------------------------------------------|
A-0-0-10-0-0-8-0-0-10-0-0-8-0-8-8-8---------------|
D-0-0-10-0-0-8-0-0-10-0-0-8-0-8-8-8---------------|


Pattern 1 played 2x
===========================================
(Burninating...)
E---------------------------------------------|
B---------------------------------------------|
G---------------------------------------------|
D---------------------------------------------|
A-0-3-5-0-3-5-0-3-5-0-3-5-5-5-5-5-------------|
D-0-3-5-0-3-5-0-3-5-0-3-5-5-5-5-5-------------|


play 4x
===========================================
Pattern 1 played 2x
===========================================
Comments