Strokes - Whatever Happened? Chords & Tabs

 

Whatever Happened? Chords & Tabs

Strokes Chords & Tabs

Version: 1 Type: Tab 1 rating
1 star 2 stars 3 stars 4 stars 5 stars
comments

Whatever Happened? Tab

   
#----------------------------------PLEASE NOTE---------------------------------#
#This file is the author's own work and represents their interpretation of the #
#song. You may only use this file for private study, scholarship, or research. #
#------------------------------------------------------------------------------#


WHAT EVER HAPPENED?
Artist: The Strokes
Tabbed by: Nick Jones nick.jones14@virgin.net
Date: 9/11/2003

Chords
    B    E    C#m    E/G#
e---x----x-----x------x----
B---4----9-----5------9----
G---4----9-----6------9----
D---4----9-----6------9----
A---2----7-----4------11---
E---x----x-----x------x----


INTRO
PM............
e------------
B------------
G------------
D------------
A-22222222222
E------------


SOLO
e--------------------------------
B--------------------------------
G-13----------------13----11-----  x2
D---13-16--13---------13----13---
A------------16-14------14----14-
E--------------------------------

e--------------------------------
B-12-0-9-0-11--14-0-11-12--11-9--
G--------------------------------  x2
D--------------------------------
A--------------------------------
E--------------------------------

in the solo section the 2nd guitar plays the chord pattern shown below:
e---------------------------
B---------------------------
G----------------9---8------
D-9--8-----------11--9------
A-11-9----------------------
E---------------------------
[ Tab from: http://www.guitartabs.cc/tabs/s/strokes/whatever_happened_tab.html ]
VERSE
e--------------------------------
B--------------------------------
G----------------9--------8------
D-9--8-----------11-------9------
A-11-9---------------------------
E--------------------------------
  Oh dear_______
  
G-----------------------------9--------8-----------
D-9--------8------------------11-------9-----------
A-11-------9---------------------------------------
  Did they offend us__________

G-------------------9--------8--------
D-9--------8--------11-------9--------
A-11-------9--------------------------
  Top ten ideas_____..

G--------------------------------9--------8------
D-9---------8--------------------11-------9------
A-11--------9------------------------------------ 
  Whose culture_________________

G------------------------9--------8----------
D-9---------8------------11-------9----------
A-11--------9--------------------------------
  I wait and tell myself__________

G--------------------------------------
D-9-------8----------------------------
A-11------9----------------------------
  But no one comes__________.

e-----------------------------
B-----------------------------
G-----------------------------
D-13-13-13--13---13--13--13---  x4
A-14-14-14-(11)-(11)(11)(11)--     11 on A string indicates bass note,
E-----------------------------     i think the guitar continues playing
           14th fret on A string.
                   e----------------
   B----------------
                   G-18------13-----
    D-18------13-----
                   A-16------11-----
   E---------------- 


G----------------9----------8------
D-9--8-----------11---------9------
A-11-9-----------------------------
  Oh Tennessee 

G------------------------9-----------8------
D-9------8---------------11----------9------
A-11-----9----------------------------------
   

G--------------------9--------8------
D-9--8---------------11-------9------
A-11-9-------------------------------
  

G--------------------------------------
D-9-------8----------------------------
A-11------9----------------------------
 

PM............
e------------
B------------
G------------
D------------
A-22222222222
E------------



Comments