Strokes - The Modern Age (solo) Chords & Tabs

 

The Modern Age (solo) Chords & Tabs

Strokes Chords & Tabs

Version: 2 Type: Tab 0 ratings
1 star 2 stars 3 stars 4 stars 5 stars
comments

The Modern Age (solo) Tab

   
#----------------------------------PLEASE NOTE---------------------------------#
#This file is the author's own work and represents their interpretation of the #
#song. You may only use this file for private study, scholarship, or research. #
#------------------------------------------------------------------------------#
The Strokes - Modern Age
Tabber; Unknown_09


Intro: D Dsus2 D Dsus2 G Gsus? G Gsus?

SOLO
e-------------------------------------------------------
B-------------------------------------------------------
G-12b-12b-12b-12b-12b-10----10-12-12-12b-10----10-12-12-
D------------------------12-----------------12----------
A-------------------------------------------------------
E-------------------------------------------------------
[ Tab from: http://www.guitartabs.cc/tabs/s/strokes/the_modern_age_solo_tab_ver_2.html ]
e--------------------------------------------------------
B--------------------------------------------------------
G-12b-12-12b-12-12b-12-12b-10----10-12-------------------
D-----------------------------12--------1212121212121212-
A--------------------------------------------------------
E--------------------------------------------------------

e-----------------------------------------------------------
B-----------------------------------------------------------
G-----------------------------------------------------------
D-12-0-10-0-7-0-5-0-3-0-3-0-5-0-7-0-12-0-10-0-7-0-5-0-3-0-3-
A-----------------------------------------------------------
E-----------------------------------------------------------

e-----------------------------------------------------------
B-----------------------------------------------------------
G-----------12-0-10-0-7-0-5-0-4-0-4-0-5-0-7-0-12-0-10-0-7-0-
D-0-5-0-7-0-------------------------------------------------
A-----------------------------------------------------------
E-----------------------------------------------------------

e------------------------------------------------14b-14b-14b-----
B------------------------------------------------------------12b-
G-5-0-4-0-4-0-5-0-7-12b-12-12b-12--12b-12-12b-12-----------------
D-------------------12b-12-12b-12--12b-12-12b-12-----------------
A----------------------------------------------------------------
E----------------------------------------------------------------


Comments