Strokes - The Modern Age (solo) Chords & Tabs

 

The Modern Age (solo) Chords & Tabs

Strokes Chords & Tabs

Version: 1 Type: Tab 0 ratings
1 star 2 stars 3 stars 4 stars 5 stars
comments

The Modern Age (solo) Tab

   
This is a tab i got of a strokes site and corrected it to sound really cool!
If what i tab isn't perfect listen to the record for the rite sound to it 
and play about with it and it should come rite as it did for me.

Solo:


On the first bending keep the string bent and play the notes it says
e-------------------------------------------------------------
a-------------------------------------------------------------
d-------------------------------------------------------------
g--b12-12-12-12-12-10-h12-p10-10-10-10-b12-10-h12-p10-10-10-10
b-------------------------------------------------------------
e-------------------------------------------------------------

Then keep bent as before stop bent when you go to 10
e--------------------------------------------------------------
a--------------------------------------------------------------
d---------All bent----------------------------12-12-12---------
g-12-12-12-12-12-12-12-12-12-10-h12-p10-10-10------------------
b--------------------------------------------------------------
e--------------------------------------------------------------
[ Tab from: http://www.guitartabs.cc/tabs/s/strokes/the_modern_age_solo_tab.html ]
This bit is tremelo picking and keep it going
You will have to listen to the track because i'm not sure how
to write this but i'll try
e--------------------------------------------------------------
a--------------------------------------------------------------
d-0-0-0-0-0-0-0-0-0-9-9-0-0-6-6-6-0-0-3-3-3-0-0-0-3-3-3-0-0-0-6
g--------------------------------------------------------------
b--------------------------------------------------------------
e--------------------------------------------------------------

e--------------------------------------------------------------
a--------------------------------------------------------------
d-6-6-0-0-0-9-9-9----------------------------------------------
g----------------0-0-0-0-0-0-0-9-9-9-0-0-0-6-6-6-0-0-0-3-3-3-0-0
b--------------------------------------------------------------
e--------------------------------------------------------------


e--------------------------------------------------------------
a--------------------------------------------------------------
d--------------------------------------------------------------
g-0-3-3-3-0-0-0-6-6-6-0-0-0-9-9-9-0-0-0-6-6-6-0-0-0-3-3-3-0-0-0
b--------------------------------------------------------------
e--------------------------------------------------------------

After the last tremelo picking listen to the record and you will
know how to do the tremelo and then work out the last bit to what
you think

e--------------------------------------------------------------
a--------------------------------------------------------------
d--------------------------------------------------------------
g-3-3-3-0-0-0-6-6-6-0-0-0-9-9-9--------------------------------
b--------------------------------------------------------------
e--------------------------------------------------------------

For the last bit i normally mess about with g string around 12
and bent up and down.
Hope this helps


comments@ Poggie5@hotmail.com
Comments