Strokes - The End Has No End Chords & Tabs

 

The End Has No End Chords & Tabs

Strokes Chords & Tabs

Version: 1 Type: Bass Tab 0 ratings
1 star 2 stars 3 stars 4 stars 5 stars
comments

The End Has No End Bass Tab

   Intro
G||-----------------|-----------------|-----------------|-----------------||
D||-7-7-7-7-7-7-7-7-|-----------------|-6-6-6-6-6-6-6-6-|-----------------||
A||-----------------|-7-7-7-7-7-7-7-7-|-----------------|-6-6-6-6-6-6-6-6-|| 
E||-----------------|-----------------|-----------------|-----------------||

   Riff one
 ||-----------------|-----------------|-----------------|-----------------|
 ||-----------------|-----------------|-----------------|-----------------|
 ||-4-4-4-4-4-4-4-4-|-4-4-4-4-4-4-4-4-|-4-4-4-4-4-4-4-4-|-4-4-4-4-4-4-4-4-|
 ||-----------------|-----------------|-----------------|-----------------|

  |-----------------|-----------------||  (2x riff one during the repeat)
  |-----------------|-----------------||
  |-----------------|-----------------||  (and play 2x the A or LA during
  |-4-4-4-4-4-4-4-4-|-4-4-4-4-4-4-4-4-||        <   the repeat) 

   Riff two
 ||-----------------|-----------------|-----------------|------------------|
 ||-----------------|-----------------|-----------------|-----------------*|
 ||-4-4-4-4-4-4-4-4-|-----------------|-8-8-8-8-8-8-8-8-|-----------------*|
 ||-----------------|-6-6-6-6-6-6-6-6-|-----------------|-4-4-4-4-4-4-4-4--|

  |-----------------|-----------------|-----------------|-----------------|
  |-----------------|-----------------|-----------------|-----------------|
  |-4-4-4-4-4-4-4-4-|-----------------|-----------------|-----------------|
  |-----------------|-6-6-6-6-6-6-6-6-|-1-1-1-1-1-1-1-1-|-4-4-4-4-4-4-4-4-|

  |-----------------|-----------------|-----------------|-----------------|
  |-----------------|-----------------|-----------------|-----------------|
  |-4-4-4-4-4-4-4-4-|-----------------|-8-8-8-8-8-8-8-8-|-8-8-8-8-8-8-8-8-|
  |-----------------|-6-6-6-6-6-6-6-6-|-----------------|-----------------|
[ Tab from: http://www.guitartabs.cc/tabs/s/strokes/the_end_has_no_end_btab.html ]
  |-----------------|-----------------||
  |-----------------|-----------------||
  |-----------------|-----------------||
  |-4-4-4-4-4-4-4-4-|-4-4-4-4-4-4-4-4-||

   Riff three (chorus)
 ||-----------------|-----------------|-----------------|-----------------|
 ||-----------------|-----------------|-----------------|-----------------|
 ||-----------------|-4-4-4-4-4-4-4-4-|-----------------|-6-6-6-6-6-6-6-6-|
 ||-2-2-2-2-2-2-2-2-|-----------------|-4-4-4-4-4-4-4-4-|-----------------|

  |-----------------|-----------------|-----------------|-----------------|
  |-----------------|-----------------|-----------------|-----------------|
  |-----------------|-4-4-4-4-4-4-4-4-|-----------------|-6-6-6-6-6-6-6-6-|
  |-2-2-2-2-2-2-2-2-|-----------------|-4-4-4-4-4-4-4-4-|-----------------|

  |-----------------||
  |-----------------||      Repeat the above (exept the intro)
  |-6-6-6-6-6-6-6-6-||
  |-----------------||

   After the repeat:
 ||-----------------|-----------------|-----------------|-----------------|
 ||-----------------|-----------------|-----------------|-----------------|
 ||-----------------|-4-4-4-4-4-4-4-4-|-----------------|-6-6-6-6-6-6-6-6-|
 ||-2-2-2-2-2-2-2-2-|-----------------|-4-4-4-4-4-4-4-4-|-----------------|

  |-----------------|-----------------|-----------------|------------------||
  |-----------------|-----------------|-----------------|-----------------*||
  |-----------------|-4-4-4-4-4-4-4-4-|-----------------|-6-6-6-6-6-6-6-6-*||
  |-2-2-2-2-2-2-2-2-|-----------------|-4-4-4-4-4-4-4-4-|------------------||

 ||-----------------|-----------------||
 ||-----------------|-----------------||
 ||-6-6-6-6-6-6-6-6-|-6-6-6-6-6-6-6-6-||
 ||-----------------|-----------------||

   Outro
 ||-----------------|-----------------|-----------------|-----------------||
 ||-7-7-7-7-7-7-7-7-|-----------------|-6-6-6-6-6-6-6-6-|-----------------||
 ||-----------------|-7-7-7-7-7-7-7-7-|-----------------|-6-6-6-6-6-6-6-6-|| 
 ||-----------------|-----------------|-----------------|-----------------||
Comments