Strokes - Take It Or Leave It (intro) Chords & Tabs

 

Take It Or Leave It (intro) Chords & Tabs

Strokes Chords & Tabs

Version: 1 Type: Tab 0 ratings
1 star 2 stars 3 stars 4 stars 5 stars
comments

Take It Or Leave It (intro) Tab

#----------------------------------PLEASE NOTE---------------------------------#
#This file is the author's own work and represents their interpretation of the #
#song. You may only use this file for private study, scholarship, or research. #
#------------------------------------------------------------------------------#
[ Tab from: http://www.guitartabs.cc/tabs/s/strokes/take_it_or_leave_it_intro_tab.html ]
--------------------------------
-8-8-8-8-7-7-7-7-6-6-6-6-6-6-6-6
-8-8-8-8-7-7-7-7-6-6-6-6-6-6-6-6  x2
-8-8-8-8-7-7-7-7-6-6-6-6-6-6-6-6
--------------------------------
--------------------------------
intro


-------------
-8-8---6-6--6
-----9-------  play this many times throughout the entire song,  
-------------  including the chorus
-------------
-------------

---------------- ------------
---8---6---8---6 ---8-8---6-6
-9---9---9---9-- -9-----9----   bridge to chorus
---------------- ------------  
---------------- ------------
---------------- ------------


   Pretty simple stuff...I figured it out as I was writing it, so it
   may be confusing.  Enjoy
Comments