Strokes - Take It Or Leave It Chords & Tabs

 

Take It Or Leave It Chords & Tabs

Strokes Chords & Tabs

Version: 1 Type: Chords 0 ratings
1 star 2 stars 3 stars 4 stars 5 stars
comments

Take It Or Leave It Chords

   
Band: The Strokes
Track: Take It Or Leave It
Album: Is This It
Guitarist: Nick Valensi
Tabbed By: Tomsk


Intro

  (A) (Ab) (Dm)	     (C)  	
E|-5----4----5--------3------|
B|-5----4----6--------5------|
G|-6----5----7--------5------|
D|-7----6----7--------5------|	
A|-7----6----5--------3------|		
E|-5----4----5--------3------|


Verse
           C               Bb                       Dm
E|--3-3-3-3-3-3-3-3--1-1-1-1-1-1-1-1--5-5-5-5-5-5-5-5-5-5-5-5-5-5-5-5-|
B|--5-5-5-5-5-5-5-5--3-3-3-3-3-3-3-3--6-6-6-6-6-6-6-6-6-6-6-6-6-6-6-6-|
G|--5-5-5-5-5-5-5-5--3-3-3-3-3-3-3-3--7-7-7-7-7-7-7-7-7-7-7-7-7-7-7-7-|
D|--5-5-5-5-5-5-5-5--3-3-3-3-3-3-3-3--7-7-7-7-7-7-7-7-7-7-7-7-7-7-7-7-|
A|--3-3-3-3-3-3-3-3--1-1-1-1-1-1-1-1--5-5-5-5-5-5-5-5-5-5-5-5-5-5-5-5-|
E|--3-3-3-3-3-3-3-3--1-1-1-1-1-1-1-1--5-5-5-5-5-5-5-5-5-5-5-5-5-5-5-5-|

Leave me alone
I'm in control
I'm in control 

And girls act too much
And boys act too tough
Enough is enough

Were on the minds of other men I know she was

I said just take it or leave it
And take it or leave it
And take it or leave it
And take it or leave it

Oh just take it or leave it 
And take it or leave it
Oh take it...
                 C
E|--3-3-3-3-3-3-3-3-3-3-3-3-3-3-3-3--|
B|--5-5-5-5-5-5-5-5-5-5-5-5-5-5-5-5--|
G|--5-5-5-5-5-5-5-5-5-5-5-5-5-5-5-5--|
D|--5-5-5-5-5-5-5-5-5-5-5-5-5-5-5-5--| X2
A|--3-3-3-3-3-3-3-3-3-3-3-3-3-3-3-3--|
E|--3-3-3-3-3-3-3-3-3-3-3-3-3-3-3-3--|


Chorus
[ Tab from: http://www.guitartabs.cc/tabs/s/strokes/take_it_or_leave_it_crd.html ]
       A        Ab           Dm               C
E|--5-5-5-5--4-4-4-4--5-5-5-5-5-5-5-5--3-3-3-3-3-3-3-3--|
B|--5-5-5-5--4-4-4-4--6-6-6-6-6-6-6-6--5-5-5-5-5-5-5-5--|
G|--6-6-6-6--5-5-5-5--7-7-7-7-7-7-7-7--5-5-5-5-5-5-5-5--|
D|--7-7-7-7--6-6-6-6--7-7-7-7-7-7-7-7--5-5-5-5-5-5-5-5--|
A|--7-7-7-7--6-6-6-6--5-5-5-5-5-5-5-5--3-3-3-3-3-3-3-3--|
E|--5-5-5-5--4-4-4-4--5-5-5-5-5-5-5-5--3-3-3-3-3-3-3-3--|
 
Oh he's gonna let you down
He's gonna let you down
He's gonna let you down
And gonna break your back, for a chance
And gonna steal your friends, if he can
He's gonna win someday


Back To Verse
           C               Bb                       Dm
E|-3-3-3-3-3-3-3-3--1-1-1-1-1-1-1-1--5-5-5-5-5-5-5-5-5-5-5-5-5-5-5-5-|
B|-5-5-5-5-5-5-5-5--3-3-3-3-3-3-3-3--6-6-6-6-6-6-6-6-6-6-6-6-6-6-6-6-|
G|-5-5-5-5-5-5-5-5--3-3-3-3-3-3-3-3--7-7-7-7-7-7-7-7-7-7-7-7-7-7-7-7-|
D|-5-5-5-5-5-5-5-5--3-3-3-3-3-3-3-3--7-7-7-7-7-7-7-7-7-7-7-7-7-7-7-7-|
A|-3-3-3-3-3-3-3-3--1-1-1-1-1-1-1-1--5-5-5-5-5-5-5-5-5-5-5-5-5-5-5-5-|
E|-3-3-3-3-3-3-3-3--1-1-1-1-1-1-1-1--5-5-5-5-5-5-5-5-5-5-5-5-5-5-5-5-|
                 
I fell off the track
Now I can't go back
I'm not like that

Boys act too much
Girls act too tough
Enough is enough. 

Well on the minds of other girls I know he was.

I said just take it or leave it
And take it or leave it
And take it or leave it

And take it or leave it
Oh just take it or leave it
And take it or leave it
Oh take it...


Solo
        C      U  Ab 
E|--3-3-3-3-3--P--4--|
B|--5-5-5-5-5--S--4--|
G|--5-5-5-5-5--T--5--| X24
D|--5-5-5-5-5--R--6--|
A|--3-3-3-3-3--O--6--|
E|--3-3-3-3-3--K--4--|
               E

Chorus

       A        Ab           Dm               C
E|--5-5-5-5--4-4-4-4--5-5-5-5-5-5-5-5--3-3-3-3-3-3-3-3--|
B|--5-5-5-5--4-4-4-4--6-6-6-6-6-6-6-6--5-5-5-5-5-5-5-5--|
G|--6-6-6-6--5-5-5-5--7-7-7-7-7-7-7-7--5-5-5-5-5-5-5-5--|
D|--7-7-7-7--6-6-6-6--7-7-7-7-7-7-7-7--5-5-5-5-5-5-5-5--|
A|--7-7-7-7--6-6-6-6--5-5-5-5-5-5-5-5--3-3-3-3-3-3-3-3--|
E|--5-5-5-5--4-4-4-4--5-5-5-5-5-5-5-5--3-3-3-3-3-3-3-3--|

I say, he's gonna let you down
He's gonna let you down
He's gonna let you down. 
And gonna break your back, for a chance
And gonna steal your friends, if he can 
He's gonna win someday

Oh he

        C      U  Ab 
E|--3-3-3-3-3--P--4--|
B|--5-5-5-5-5--S--4--|
G|--5-5-5-5-5--T--5--| X2
D|--5-5-5-5-5--R--6--|
A|--3-3-3-3-3--O--6--|
E|--3-3-3-3-3--K--4--|
               E

Thank You, please rate.

Barca_Rocks@hotmail.com for comments, corrections and address to send cold beer.
Comments