Strokes - Someday Chords & Tabs

 

Someday Chords & Tabs

Strokes Chords & Tabs

Version: 3 Type: Tab 0 ratings
1 star 2 stars 3 stars 4 stars 5 stars
comments

Someday Tab

Someday
Tabbed by: Nedelko
This song is just amazing! That's all there is to it.

Tuning: Standard (EADGBe)
There was one other good tab of this but I thought it was too high to sound just like 
record, so this is how I think it is played.

Note: I do not take whole credit for this tab; I've only changed what I thought needed 
be changed and added a second guitar. The rest of this is by a man who goes by the name 
Barry (Furry Monkey). Cheers man!

Intro
e|------------------------------------------------|
B|-10-12--14-12--14-12--12-10---------------------|
G|-9--9---11-11--11-11--9--9----------------------|
D|-11-11--12-12--12-12--11-11---------------------|
A|------------------------------------------------|
E|------------------------------------------------|

The second guitar, (during the verse) just strums this:
Gtr 2:
e|------------------------------------------------|
B|-10--14--12--12---------------------------------|
G|-9---11--11--9----------------------------------|
D|-11--12--12--11---------------------------------|
G|------------------------------------------------|
A|------------------------------------------------|
E|------------------------------------------------|
Listen to the song for the strums; it's easy to figure out.

Verses
e|------------------------------------------------|
B|-10-12--14-12--14-12--12-10---------------------|
G|-9--9---11-11--11-11--9--9----------------------|
D|-11-11--12-12--12-12--11-11---------------------|
A|------------------------------------------------|
E|------------------------------------------------|
Chorus
[ Tab from: http://www.guitartabs.cc/tabs/s/strokes/someday_tab_ver_3.html ]
Gtr 1
e|-9--12--9--7-10-7-5-9-5-------------------------|
B|-10-----10-9----9-7---7-------------------------|
G|-9------9--9----9-6---6-------------------------|
D|------------------------------------------------|
A|------------------------------------------------|
E|------------------------------------------------|

e|-9--12--9--7-10-7-5-9-5-------------------------|
B|-10-----10-9----9-7---7-9-----------------------|
G|-9------9--9----9-6---6-9-----------------------|
D|------------------------9-X-32------------------|
A|------------------------7-----------------------|
E|------------------------------------------------|

I think the second guitar just strums these chords or something like this during the chorus:

e|--5---------------------------------------------|
B|--5--------9------------------------------------|
G|--6--------9------------------------------------|
D|--7--------9------------------------------------|
A|--7--------7------------------------------------|
E|--5---------------------------------------------|

Bridge (This part is played on Bass)

G|------------------------------------------------|
D|------------------------------------------------|
A|-----------0-0-2-2-5-5-0-0----------------------|
E|------------------------------------------------|

e|------------------------------------------------|
B|-10-12--14-12--14-12--12-10---------------------|
G|-9--9---11-11--11-11--9--9----------------------|
D|-11-11--12-12--12-12--11-11---------------------|
A|------------------------------------------------|
E|------------------------------------------------|

 End On

e|--5----------------------------------------------|
B|--5----------------------------------------------|
G|--6----------------------------------------------|
D|--7----------------------------------------------|
A|--7----------------------------------------------|
E|--5----------------------------------------------|

Order Of Song

 Intro X 2
 Verse X 4
 Chorus
 Bridge
 Verse X 2
 Chorus

P.S If any of you like the Libertines you should definitely check out my tab of can't 
me now and arbeit macht frei ( they're perfect!), it's the first version of it. The other 
are live and just intro.
Comments